Loudblast - Shaped Images Of Disincarnate Spirits Chords & Tabs

 

Shaped Images Of Disincarnate Spirits Chords & Tabs

Loudblast Chords & Tabs

Version: 1 Type: Tab 0 ratings
1 star 2 stars 3 stars 4 stars 5 stars
comments

Shaped Images Of Disincarnate Spirits Tab

   
"Shaped images of disincarnate spirits" by LOUDBLAST from the album Disincarnate
Transcription : Julien Lincy 
Email me for any question or correction at  : julien.lincy@caramail.com 

#Tuning : down two whole step (C,G,Db,B,F,C)
#Effects :    /  slide
              PM palm mute
	      /\ bend and release ( (x) is the bend value)	      
		
#Use a heavy distortion to play this song

Here's Loudblast's masterpiece :

#Intro:
Riff 1 (very slow)
					  (1)			           (1)
	(Organ intro)				  /\	                           /\	
|-----------|-------------------------------------------------------------------
|-----------|-------------------------------------------------------------------
|-----------|------------------------------------------------------------------ 
|-----------|-------------------------------------------------------------------
|-----------|------------------------------4--3-----------5--4-------------3--4-
|-----------|---2---4-5-4---3-----2---4-5---------2---4-5--------2---4-5--------
     
Riff 2

""""""""""1st time"""""""""""""""""()"""""""""""2nd time"""""""""""""""""""
			x3  4th time 			      x3  4th time 
|-------------------------|---------|----------------------------|---------
|-------------------------|---------|----------------------------|---------
|-------------9-/-12-x-12-|---------|--------------9-/-12-x-14---|---------
|--4-x-4-4----x-/-x--x-x--|-8-8-x-9-|---4-x-4-4----x-/-x--x-x----|-8-8-x-9-
|--4-x-4-4----7-/-10-x-10-|-8-8-x-9-|---4-x-4-4----7-/-10-x-12---|-8-8-x-9-
|--2-x-2-2----------------|-6-6-x-7-|---2-x-2-2------------------|-6-6-x-7-
PM:.......                      ....... 
[ Tab from: http://www.guitartabs.cc/tabs/l/loudblast/shaped_images_of_disincarnate_spirits_tab.html ]
Riff 3 (slow)
		      let ring                      let ring
|------------------------------------------------------------------
|------------------------------------------------------------------
|------------------------------------------------------------------
|--4-x-4--4-x-4--4-4--3----------4-x-4--4-x-4--4-4--5--------------
|--4-x-4--4-x-4--4-4--3----------4-x-4--4-x-4--4-4--5--------------
|--2-x-2--2-x-2--2-2--1----------2-x-2--2-x-2--2-2--3--------------
PM:.................             .................

Riff 4 (speed) (I'm not really sure of that part)

"Disincarnate..."

|------------------------------------------------------------------------------------------------
|------------------------------------------------------------------------------------------------
|------------------------------------------------------------------------------------------------
|------------------------------------------------------------------------------------------------
|---------------------------------4-4-4-4-4-4-4-4--5-5-4-4---------3-3-3-3-3-3-3-3-2-2-3-3-------
|-2-2-2-2-2-2-2-2-3-3-2-2-3-3-2-2--------------------------4-4-5-5-------------------------3-3---

Bridge (very speed)

|---------------------------------------------------------|---------------------------------------------------------------
|---------------------------------------------------------|---------------------------------------------------------------
|---------------------------------------------------------|---------------------------------------------------------------
|---------------------------------------------------------|---------------------------------------------------------------
|-------------------------4-4-4-4-5-5-5-5-4-4-4-4-8-8-8-8-|-------------------------6-6-6-6-7-7-7-7-6-6-6-6-10-10-10-10---
|-2-2-2-2-4-4-4-4-5-5-5-5---------------------------------|-4-4-4-4-6-6-6-6-7-7-7-7---------------------------------------



Listen to the song to know when each riff is played
Comments