Loud Silence - Killing Spree Chords & Tabs

 

Killing Spree Chords & Tabs

Loud Silence Chords & Tabs

Version: 1 Type: Tab 0 ratings
1 star 2 stars 3 stars 4 stars 5 stars
comments

Killing Spree Tab

Loud Silence   Killing Spree.
 Tabbed by Richard   DeaditeBeast2000@aol.com.
  
Verse 1
e--2-2---4----------------------------------
b--2-2--3-----------------------------------
g--2-2-2------------------------------------
d--------------------------6---7------------
a---------------4-4------6-4-1-5------------
E----------12/2-2-2-2xx3-4---2---2-3-4-5-6/1b
[ Tab from: http://www.guitartabs.cc/tabs/l/loud_silence/killing_spree_tab.html ]
Chorus
e---------------------------------10-----0-------
b--------------------------------9-------0-------
g----------------------------7--9--------0-------
d---------------2-----3--5--7-8----------2-------
a--------------4-4---4--7-5---------4-4--2-------
E-0-0-0-00-1b-2---5-2--6---5--------2-2--0-------

play verse one as verse two

verse 1
verse 2

chorus
chorus

 
:: Ultimate Guitar Archive :: 
http://www.ultimate-guitar.com 



Comments