Lou Reed - Venus In Furs Chords & Tabs

 

Venus In Furs Chords & Tabs

Lou Reed Chords & Tabs

Version: 1 Type: Tab 0 ratings
1 star 2 stars 3 stars 4 stars 5 stars
comments

Venus In Furs Tab

   
Song: Venus in furs
Artist: Lou reed/The velvet underground
Album: Animal Serenade
Tuning: E
        B
        G
        D
        A
        E
Tabber: Shmeegle

Intro/Verse

E/--------0--0--1--1--0-1-0---|
B/----3---3--3--3--3--3-3-3-3-|
G/--2-2-----2-----2---------2-|
D/-0----0------0-----0--------|
A/----------------------------|
E/----------------------------|

"Shiny shiny, shiny boots of leather"
"Comes in bells,your servant dont forsake him"

E/--------0--0--------------0---|
B/----3---3--3------------2-3-3-|
G/--2-2-----2--2--------2-----2-|
D/-0----0--------3-3-3--0-------|
A/---------------3-3-3----------|
E/---------------1-1-1----------|

"whip-lashed girl child in the dark"
"strike dear mistress and cure his heart"

Chorus:

E/---------------------------------|
B/---------------------------------|
G/---------3-3-3-3-5-5-5-5---------|
D/-3-3-3-3-3-3-3-3-5-5-5-5-3-3-3-3-|
A/-3-3-3-3-1-1-1-1-3-3-3-3-3-3-3-3-|
E/-1-1-1-1-----------------1-1-1-1-|

"i am tired, and i am weary"
"a thousand dreams, that would awake me"
[ Tab from: http://www.guitartabs.cc/tabs/l/lou_reed/venus_in_furs_tab.html ]
E/---------------------------------|
B/---------------------------------|
G/---------3-3-3-3-----------------|
D/-3-3-3-3-3-3-3-3-5-5-5-5-3-3-3-3-|
A/-3-3-3-3-1-1-1-1-5-5-5-5-3-3-3-3-|
E/-1-1-1-1---------3-3-3-3-1-1-1-1-|

"i could sleep, for a thousand years"

E/--------0--0--1--1--0-1-0---|
B/----3---3--3--3--3--3-3-3-3-|
G/--2-2-----2-----2---------2-|
D/-0----0------0-----0--------|
A/----------------------------|
E/----------------------------|

"different colors made of tears"

-------------------------------------------
*******************************************
-------------------------------------------

I first heard this song watching the flip sorry video.
it was playing behind tom pennys part after arto concusses
himself. I loved it. It was so haunting and cool. This 
versions good enough too. Its on a live lou reed album.(animal serenade)
disc 1 track 12. its good. I had to tab it out. Looked 
all over the net for a good tab, and all i got was

E/------------------------|
B/------------------------|
G/---5----5----5----------|
D/--5-5--5-5--5-5---------|
A/-3----5----6----5-6-5-3-|
E/------------------------|

Fuckin pathetic. So i said id tab it out right. 
Sounds good to me.
Enjoy
Shmeegle
Comments