Lostprophets - We Still Kill The Old Way Chords & Tabs

 

We Still Kill The Old Way Chords & Tabs

Lostprophets Chords & Tabs

Version: 1 Type: Bass Tab 0 ratings
1 star 2 stars 3 stars 4 stars 5 stars
comments

We Still Kill The Old Way Bass Tab

Band- Lostprophets
Song- We Still Kill The Old Way

Intro
G -----------------------------------------|------------------------|
D -----------------------------------------|------------------------|
A -----------------------------------------|------------------------|
D -0-0-0---0---0-0---0---0-0-0-0-----(x4)--|---0r---0r---0r---0r----|

G ---|--------------------------------------------------------------------------------|
D ---|--------------------------------------------------------------------------------|
A ---|--------------------------------------------------------------------------------|
D ---|-5h7-7--5h7-7--5h7-7--5h7-7--5h7-7-5--3h7-7--3h7-7--3h7-7--3h7-7--3h7-7-3-------|

G ----------------------------------------------------------------------------------|
D ----------------------------------------------------------------------------------|
A ----------------------------------------------------------------------------------|
D -0h5-5--0h5-5--0h5-5--0h5-5--0h5-5-0--3h7-7--3h7-7--3h7-7--3h7-7--3h7-7-3----(x2)-|

G ---------|
D ---------|
A ---------|
D ----0r---|

       Verse
G -----------------------------------------------------------------------------|
D -----------------------------------------------------------------------------|
A -----------------------------------------------------------------------------|
D ----pause-----5h7-7--5h7-7--5h7----3h7-7--3h7-7--3h7-----0h5-5--0h5-5--0h5---|

G --------------------------------|
D --------------------------------|
A --------------------------------|
D ---3h7-7---3h7-7---3h7\---14\---|

      Pre-Chorus
G -----------------------------------------------------------------------|
D -----------------------------------------------------------------------|
A -----------------------------------------------------------------------|
D ---7-7-7--7-7-7--7-7-7--7/14---12-12-12--12-12-12--12-12-12--12---12---|

G ------------------------------------------------------------------------------------|
D ------------------------------------------------------------------------------------|
A -------------------------------------------/10-10-10--10-10-10--10-10-10--10-10-10--|
D -10-10-10--10-10-10--10-10-10--10-10-10---------------------------------------------|(x2)
[ Tab from: http://www.guitartabs.cc/tabs/l/lostprophets/we_still_kill_the_old_way_btab.html ]
      Pre-Chorus 2
G -----------------------------------------------------------------------------|
D -----------------------------------------------------------------------------|
A -----------------------------------------------------------------------------|
D -5h7-7--5h7-7--5h7-7--5h7-7--5h7-7-5--5h7-7--5h7-7--5h7-7--5h7-7--5h7-7-5---|

     Chorus
G -------------------------------------------------------------------------------------|
D -------------------------------------------------------------------------------------|
A -------------------------------------------------------------------------------------|
D ---7---7-7--7---7-7-7--7--9---9-9--9---9-9-9--9--10---10-10--10---10-10-10-10--10----|

G -------------------------------------------------------------------------|
D -------------------------------------------------------------------------|
A -------------------------------------------------------------------------|
D ---0---0-0--0---0-0-0--0--7---7-7--7---7-7-7--7-----9-9--9---9-9-9--9---|

G ------------------------------|---------------------------------------------|-------------------|
D ------------------------------|---------------------------------------------|-------------------|
A ------------------------------|---------------------------------------------|-------------------|
D ---3---3-3--3---3-3-3--3------|-0-0---0-0---0-0---0-0---0-0-0---(x2)--------|-------------------|

     -Verse-
    1:55, ending of 1st time changes from 14\ to 7/17\ on 4th string
    2:04, verse ends with /9-10-12 on 4th string

    -Pre Chorus-

    -Pre Chorus 2- ends with ---5/14--- on 4th string

    -Chorus-

    -1st part of intro-

     Interlude
G ----------------------------------------------------------------------------------------------------------|
D -/7-----------------0h5h7-----------------0h5h7-----------------0h5--5-5--5-5---4-4--4-4--4-4-4-----------|
A ----------------------------------------------------------------------------------------------------------|
D -----7--7---7-7-7----------7--7---7-7-7----------7--7---7-7-7---------------------------------------------|

G -------------------------------------------------------------------------------------------------------------|
D ---/7--------------------------------------------------------------------------------------------------------|
A --------------------------------------------------------------------/10-10---10-10---9-9---9-9---9---9-------|
D -------7--7---7-7-7--7---9---9---9---9-9-9--7--5---5---5----5-5-5----------------------------------------7r\-|

G ----------------------------------------|
D 10(x8)---9(x8)---7(x8)---9(x8)---------|
A ----------------------------------------|
D ----------------------------------------|

    -Chorus-

    -end song with 0r---0r---0r---0r  on 4th string-
Comments