Lostprophets - We Are Godzilla You Are Japan Chords & Tabs

 

We Are Godzilla You Are Japan Chords & Tabs

Lostprophets Chords & Tabs

Version: 3 Type: Tab 0 ratings
1 star 2 stars 3 stars 4 stars 5 stars
comments

We Are Godzilla You Are Japan Tab

   
Artist: LostProphets -  We Are Godzilla, You Are Japan
Album: Start Something  | Year: 2004
E dropped to D [DADGBE]

... = Palm Mute
b   = Bend
vvv = Let Ring

-- Song Layout --

- Intro
::
- Main Part1
- Main Part2
- Verse 1 - Part1
- Verse 1 - Part1
- Verse 2 - Part1
::
- Main Part1
- Main Part2
- Verse 1 - Part2 [2x]
- Verse 2 - Part1
::
- Main Part1 [2x]
- Verse 3 [12x]
::
- Intro
- Verse 4 [2x]
- Verse 5 [2x]
- Verse 6 [4x]



:: [Intro] ::
||----------------------------------
||----------------------------------
||------4b----4b----4b--------------
||-10-2----23----35----5-00-0-0---0--
||-10-2----23----35----5-00-0-0---0--
||-10-2----23----35----5-00-0-0---0--
                         .. . .   .

||----------------------------------
||----------------------------------
||----4b----4b----4b----------------
||--2----23----35----5-00-00-00-00--
||--2----23----35----5-00-00-00-00--
||--2----23----35----5-00-00-00-00--
                       .. .. .. ..

:: [Main - Part1] ::
||---------------------------------
||---------------------------------
||----4b----4b----4b---------------
||--2----23----35----5-00-0-0---0--
||--2----23----35----5-00-0-0---0--
||--2----23----35----5-00-0-0---0--
                       .. . .   .

||--------------------------------
||--------------------------------
||----4b----4b----4b--------------
||--2----23----35----5-00-0-0--5--
||--2----23----35----5-00-0-0--5--
||--2----23----35----5-00-0-0--5--
                       .. . .

:: [Main - Part2] ::
||--------------------------------
||--------------------------------
||----4b----4b----4b--------------
||--2----23----35----5-00-0-0---0--
||--2----23----35----5-00-0-0---0--
||--2----23----35----5-00-0-0---0--
                       .. . .   .

||-------------------------------------
||-------------------------------------
||----4b----4b----4b-------------------
||--2----23----35----5-00-0-0--52vvvv--
||--2----23----35----5-00-0-0--52vvvv--[ vvv Let ring ]
||--2----23----35----5-00-0-0--52vvvv--
                       .. . .
[ Tab from: http://www.guitartabs.cc/tabs/l/lostprophets/we_are_godzilla_you_are_japan_tab_ver_3.html ]
:: Verse 1 - Part 1 :: 2x
||------------------------
||------------------------
||------------------------
||--2202--55-555--00-000--
||--2202--55-555--00-000--
||--2202--55-555--00-000--

||------------------------
||------------------------
||------------------------
||--2202--55-555--00-005--
||--2202--55-555--00-005--
||--2202--55-555--00-005--

:: Verse 1 - Part2 ::
||------------------------
||------------------------
||------------------------
||--2202--55-555--00-000--
||--2202--55-555--00-000--
||--2202--55-555--00-000--

||------------------------
||------------------------
||------------------------
||--2202--55-555--00-0----
||--2202--55-555--00-0----
||--2202--55-555--00-0----

:: Verse 2 - Part1 ::
||---------------------------------------
||---------------------------------------
||---------------------------------------
||---------------------------------------
||---------------------------------------
||--22222202-33333303-55555555-00000000--

||---------------------------------------------
||---------------------------------------------
||---------------------------------------------
||---------------------------------------------
||---------------------------------------------
||--22222202-33333303-55555505---8-8-8-8--xxx--

:: Verse 3 ::
||----------
||----------
||----------
||-00-00-0--
||-00-00-0--
||-00-00-0--

:: Verse 4 ::
||--------------------
||--------------------
||--------------------
||--2--23--35--5-000--
||--2--23--35--5-000--
||--2--23--35--5-000--

:: Verse 5 ::
||----------------------------
||----------------------------
||----4b----4b----4b----------
||--2----23----35----5-0-0-0--
||--2----23----35----5-0-0-0--
||--2----23----35----5-0-0-0--

:: Verse 6 ::
||---------------------------------------
||---------------------------------------
||---------------------------------------
||--2222222-33333333-55555555--00000000--
||--2222222-33333333-55555555--00000000--
||--2222222-33333333-55555555--00000000--

I'm pretty sure that this tab is perfect,
but if you have any comments or details please let me know. [mail: santje_84@hotmail.com]
Comments