Lostprophets - We Are Godzilla You Are Japan Chords & Tabs

 

We Are Godzilla You Are Japan Chords & Tabs

Lostprophets Chords & Tabs

Version: 2 Type: Tab 0 ratings
1 star 2 stars 3 stars 4 stars 5 stars
comments

We Are Godzilla You Are Japan Tab

   
Artist: LostProphets
Song: We Are Godzilla, You Are Japan
Album: Start Something
Year: 2004
Drop D tuning

b = bend
... = palm mute

I got their new album the day it came out and this is one of the best tracks on
it, great riffs and drumming. I think this is pretty much %100 perfect but send
any comments/corrections to: insomnia992001@yahoo.co.uk

Intro Riffs (guitar only)

|-----------------------------
|-----------------------------
|---4b----4b----4b------------
|-2---2-3---3-5---5-00-0-0-0--
|-2---2-3---3-5---5-00-0-0-0--
|-2---2-3---3-5---5-00-0-0-0--
                    .. . . .

|--------------------------------
|--------------------------------
|---4b----4b----4b---------------
|-2---2-3---3-5---5-00-00-00-00--
|-2---2-3---3-5---5-00-00-00-00--
|-2---2-3---3-5---5-00-00-00-00--
                    .. .. .. ..

Main Riffs/Chorus (with drums and bass)

|-------------------------------
|-------------------------------
|---4b-----4b-----4b------------
|-2---2-33---3-55---5-00-0-0-0--
|-2---2-33---3-55---5-00-0-0-0--
|-2---2-33---3-55---5-00-0-0-0--
                      .. . . .

|-------------------------------
|-------------------------------
|---4b-----4b-----4b------------
|-2---2-33---3-55---5-00-0-0-0--
|-2---2-33---3-55---5-00-0-0-0--
|-2---2-33---3-55---5-00-0-0-0--
                      .. . .
[ Tab from: http://www.guitartabs.cc/tabs/l/lostprophets/we_are_godzilla_you_are_japan_tab_ver_2.html ]
|-------------------------------
|-------------------------------
|---4b-----4b-----4b------------
|-2---2-33---3-55---5-00-0-0-0--
|-2---2-33---3-55---5-00-0-0-0--
|-2---2-33---3-55---5-00-0-0-0--
                      .. . . .

|-----------------------------------
|-----------------------------------
|---4b-----4b-----4b----------------
|-2---2-33---3-55---5-00-0-0-0-5-2--
|-2---2-33---3-55---5-00-0-0-0-5-2--
|-2---2-33---3-55---5-00-0-0-0-5-2--
                      .. . . .

Verse

|-------------------------
|-------------------------
|-------------------------
|-2202-------55-55-00-00--
|-2202-------55-55-00-00--
|-2202-------55-55-00-00--

Break

|---------------------------------
|---------------------------------
|---------------------------------
|---------------------------------
|---------------------------------
|22222222333333335555555500000000-

|-------------------------------------------
|-------------------------------------------
|-------------------------------------------
|-------------------------------------------
|-------------------------------------------
|222222223333333355555555111-111-111-111-11-

Other Riff

|----------
|----------
|----------
|-00-0-0-0-
|-00-0-0-0-
|-00-0-0-0-
  .. . . .

for the outro just thrash the break section Slayer style, getting faster each time.
If you listen to the song you should be able to figure out the structure of the
riffs, it's pretty simple.
Comments