Lostprophets - To Hell We Ride Chords & Tabs

 

To Hell We Ride Chords & Tabs

Lostprophets Chords & Tabs

Version: 1 Type: Tab 0 ratings
1 star 2 stars 3 stars 4 stars 5 stars
comments

To Hell We Ride Tab

Artist: Lost Prophets
Title: To Hell We Ride
Album: Start Something
Tuning: Dropped D (DADGBe) Low to High
Tabber: a_guy_called_richard@hotmail.com

Ok, so there are alot of sections to this song so listen to it carefully

Intro: Pick this really fast with PM
|------12--------12--------12--------12-------12------12------12------12-|
|----9----9----9----9----9----9----9----9---10--10--10--10--10--10--10---|
|-11--------11--------11--------11--------11------11------11------11-----|
|------------------------------------------------------------------------|
|------------------------------------------------------------------------|
|------------------------------------------------------------------------|


Intro Part 2:
Rhythm:
|-----------------------------------------------------------|
|-----------------------------------------------------------|
|-----------------------------------------------------------| x2
|-2---2-4-2-4-4-2---2-4-2-4-4-2---2-4-2-4-4-2---2-4-2---2-4-|
|-2---2-4-2-4-4-2---2-4-2-4-4-2---2-4-2-4-4-2---2-4-2---2-4-|
|-2---2-4-2-4-4-2---2-4-2-4-4-2---2-4-2-4-4-2---2-4-2---2-4-|

Lead:
|---------0-------------0-------------0---------------------|
|---------0-------------0-------------0---------------------|
|---------0-------------0-------------0---------------------| x2
|-----------------------------------------------------------|
|-----------------------------------------------------------|
|-----------------------------------------------------------|

Intro Part 3:
Rhythm:
|----------------------|
|----------------------|
|----------------------|
|-0---------2----------|
|-0---------2----------|
|-0---------2----------|

Lead:
|-----------0----------|
|-----------0----------|
|-----------0----------|
|----------------------|
|----------------------|
|----------------------|


Verse:
Rhythm:
|---------------------------------|
|---------------------------------|
|---------------------------------| x8
|-x-x-2/4-2/4-x-x-2/4-2/4-x-x-2/4-|
|-x-x-2/4-2/4-x-x-2/4-2/4-x-x-2/4-|
|-x-x-2/4-2/4-x-x-2/4-2/4-x-x-2/4-|

Lead: I think this little quiet bit is played on 
guitar anyway. When you play the last note, just
bend a release it alot until the end of the verse
|-------------------------------------|
|-------------------------------------|
|-------------------------------------| 
|-------------------------------------|
|-9~~~~~~~-12~~~~~~-11~~~~~~-12~~~~~~-|
|-------------------------------------|


|--------------------------------|
|--------------------------------|
|-11~~~~~~-14~~~~~~-13brbrbrbrbr-|
|--------------------------------|
|--------------------------------|
|--------------------------------|


Pre-Chorus: Man this bit is confusing
Rhythm:
|---------------------------------------------|
|---------------------------------------------|
|---------------------------------------------|
|--4--4-4-44--0--0-0-00--9--9-9-99--5--5-5-55-|
|--4--4-4-44--0--0-0-00--9--9-9-99--5--5-5-55-|
|--4--4-4-44--0--0-0-00--9--9-9-99--5--5-5-55-|

|-----------------------------------------------------|
|-----------------------------------------------------|
|-----------------------------------------------------|
|--4--4-4-44--0--0-0-00--9-9-9-9-9-9-9-5--5-5-5-5-5-5-|
|--4--4-4-44--0--0-0-00--9-9-9-9-9-9-9-5--5-5-5-5-5-5-|
|--4--4-4-44--0--0-0-00--9-9-9-9-9-9-9-5--5-5-5-5-5-5-|
PM                         . . .   . .    . . .   . . 

Lead:
|----------------------|
|----------------------|
|-9br--7--6--7--6/4--6-| x3
|----------------------|
|----------------------|
|----------------------|

|--------------------------------|
|--------------------------------|
|-0-0-0-9--0-0-4--0-0-0-9--0-0-9-|
|--------------------------------|
|--------------------------------|
|--------------------------------|
PM. . .    . .    . . .    . . 

Pre-Chorus 2: On the second part of the pre-chorus play this
Rhythm:
|---------------------------------------------|
|---------------------------------------------|
|---------------------------------------------| x2
|--4--4-4-44--0--0-0-00--9--9-9-99--5--5-5-55-|
|--4--4-4-44--0--0-0-00--9--9-9-99--5--5-5-55-|
|--4--4-4-44--0--0-0-00--9--9-9-99--5--5-5-55-|

Lead:
|----------------------|
|----------------------|
|-9br--7--6--7--6/4--6-| x2
|----------------------|
|----------------------|
|----------------------|

|--------------------------------|
|--------------------------------|
|-0-0-0-9--0-0-4--0-0-0-9--0-0-9-|
|--------------------------------|
|--------------------------------|
|--------------------------------|
PM. . .    . .    . . .    . . 

|--------------------------------|
|--------------------------------|
|-9-9-9---9-9-9---9-9-9---9-9-9--|
|--------------------------------|
|--------------------------------|
|--------------------------------|

End of Pre-Chorus:
Rhythm: Just let this ring for a bit
|-----|
|-----|
|-----|
|--5--|
|--5--|
|--5--|

Lead: Not the exact amount of times, but u get the idea
|----------------------------------|
|----------------------------------|
|-21-21-21-21-21-21-21-21-21-21-21-|
|----------------------------------|
|----------------------------------|
|----------------------------------|


Chorus:
Rhythm:
|-----------------------------------------------------------|
|-----------------------------------------------------------|
|-----------------------------------------------------------| x2
|-2---2-4-2-4-4-2---2-4-2-4-4-2---2-4-2-4-4-2---2-4-2---2-4-|
|-2---2-4-2-4-4-2---2-4-2-4-4-2---2-4-2-4-4-2---2-4-2---2-4-|
|-2---2-4-2-4-4-2---2-4-2-4-4-2---2-4-2-4-4-2---2-4-2---2-4-|

Lead:
|---------0-------------0-------------0---------------------|
|---------0-------------0-------------0---------------------|
|---------0-------------0-------------0---------------------| x2
|-----------------------------------------------------------|
|-----------------------------------------------------------|
|-----------------------------------------------------------|

Second bit of chorus:
Rhythm: Not the exact amount of strumming,
listen to the song to see how it goes
|---------------------------------|
|---------------------------------|
|---------------------------------|
|-0-0-0-0-2-2-2-2-4-4-4-4-7-7-7-7-|
|-0-0-0-0-2-2-2-2-4-4-4-4-7-7-7-7-|
|-0-0-0-0-2-2-2-2-4-4-4-4-7-7-7-7-|

|-----------------|
|-----------------|
|-----------------|
|-0-0-0-0-2-2-2-2-|
|-0-0-0-0-2-2-2-2-|
|-0-0-0-0-2-2-2-2-|
[ Tab from: http://www.guitartabs.cc/tabs/l/lostprophets/to_hell_we_ride_tab.html ]
Lead: I think sounds ok, but it could be wrong
Hit all of these notes pretty fast
|---------------------|
|-3--5--7--10--15--17-|
|---------------------|
|---------------------|
|---------------------|
|---------------------|
Play all those notes throught the whole of this section,
listen to the song to see what i mean


Then play this bit 4 a little:
Rhythm:
|-----------------------------------------------------------|
|-----------------------------------------------------------|
|-----------------------------------------------------------|
|-2---2-4-2-4-4-2---2-4-2-4-4-2---2-4-2-4-4-2---2-4-2---2-4-|
|-2---2-4-2-4-4-2---2-4-2-4-4-2---2-4-2-4-4-2---2-4-2---2-4-|
|-2---2-4-2-4-4-2---2-4-2-4-4-2---2-4-2-4-4-2---2-4-2---2-4-|

Lead:
|---------0-------------0-------------0---------------------|
|---------0-------------0-------------0---------------------|
|---------0-------------0-------------0---------------------|
|-----------------------------------------------------------|
|-----------------------------------------------------------|
|-----------------------------------------------------------|

Then play the Verse for the normal length.

Then the Pre-Chorus as usual.

Then the End of Pre-Chorus bit.

Then all of the Chorus for the normal length.

Then play this

Interlude:
|------12-------12--------12-----12-|
|-10--------9-----------9------10---|
|--------------------11------11-----|
|-----------------------------------|
|-----------------------------------|
|-----------------------------------|

Interlude Part 2: Same sort of thing as the intro
|------12--------12--------12--------12-------12------12------12------12-|
|----9----9----9----9----9----9----9----9---10--10--10--10--10--10--10---|
|-11--------11--------11--------11--------11------11------11------11-----|
|------------------------------------------------------------------------|
|------------------------------------------------------------------------|
|------------------------------------------------------------------------|

|-----14------14------14------14------14------14------14------14-|
|---12--12--12--12--12--12--12--12--12--12--12--12--12--12--12---|
|-13------13------13------13------14------14------14------14-----|
|----------------------------------------------------------------|
|----------------------------------------------------------------|
|----------------------------------------------------------------|
Play all of this twice, except on the last time only play the first bit,
if u get what i mean. Just listen to the song


Last part of Interlude: Strum this very fast
Lead: Not the exact amount of strumming is shown below
|-12-12-12-12-12-----12-12-12-12-12-----12-12-12-12-12------12-12-12-12-12-|
|-9--9--9--9--9------9--9--9--9--9------10-10-10-10-10------10-10-10-10-10-|
|-11-11-11-11-11-----11-11-11-11-11-----11-11-11-11-11------11-11-11-11-11-|
|--------------------------------------------------------------------------|
|--------------------------------------------------------------------------|
|--------------------------------------------------------------------------|

Rhythm: I think there is a second guitar here
Not the exact amount of strumming is shown below
|---------------------------------------------------------------|
|---------------------------------------------------------------|
|---------------------------------------------------------------|
|-4-4-4-4-4-4-4---4-4-4-4-4-4-4---4-4-4-4-4-4-4---4-4-4-4-4-4-4-|
|-4-4-4-4-4-4-4---4-4-4-4-4-4-4---4-4-4-4-4-4-4---4-4-4-4-4-4-4-|
|-4-4-4-4-4-4-4---4-4-4-4-4-4-4---4-4-4-4-4-4-4---4-4-4-4-4-4-4-|

After u've played that bit, theres this bit towards the end 
which i dont know what to cll :S so ill just call it Interlude 2


Interlude 2:
Rhythm:
|---------------------------------|
|---------------------------------|
|---------------------------------|
|-0-----0-2-----2-4-----4-0-----0-|
|-0-----0-2-----2-4-----4-0-----0-|
|-0-----0-2-----2-4-----4-0-----0-|

|-----------------|
|-----------------|
|-----------------|
|-0-----0-2-----2-|
|-0-----0-2-----2-|
|-0-----0-2-----2-|

Lead:
|------12--------12--------12--------12-------12------12------12------12-|
|----9----9----9----9----9----9----9----9---10--10--10--10--10--10--10---|
|-11--------11--------11--------11--------11------11------11------11-----|
|------------------------------------------------------------------------|
|------------------------------------------------------------------------|
|------------------------------------------------------------------------|

|-----14------14------14------14------14------14------14------14---|
|---12--12--12--12--12--12--12--12--12--12--12--12--12--12--12--12-|
|-13------13------13------13------14------14------14------14-------|
|------------------------------------------------------------------|
|------------------------------------------------------------------|
|------------------------------------------------------------------|

|------12--------12--------12--------12-------12------12------12------12-|
|----9----9----9----9----9----9----9----9---10--10--10--10--10--10--10---|
|-11--------11--------11--------11--------11------11------11------11-----|
|------------------------------------------------------------------------|
|------------------------------------------------------------------------|
|------------------------------------------------------------------------|


End of song bit:
Rhythm:
|--------------------------------------|
|--------------------------------------|
|--------------------------------------|
|-2/4-4-4-4-4-44-4--x-2/4-4-4-4-4-44-4-|
|-2/4-4-4-4-4-44-4--x-2/4-4-4-4-4-44-4-|
|-2/4-4-4-4-4-44-4--x-2/4-4-4-4-4-44-4-|


Final bit of song: Both guitars play this bit at first
but on the second time 1 guitar plays it with lead over
the top
Rhythm:
|--------------------------------------|
|--------------------------------------|
|--------------------------------------| Repeat a few times
|-2/4-4-4-4-4-44-4--x-2/4-4-4-4-4-44-4-|
|-2/4-4-4-4-4-44-4--x-2/4-4-4-4-4-44-4-|
|-2/4-4-4-4-4-44-4--x-2/4-4-4-4-4-44-4-|

Lead: God knows what's actually played here,
but thissounds good.
Just pick each of these notes very fast.
Listen to the song to here when you change note.
|-12-12-12-12-12-12-14-14-14-14-14-14-|
|-------------------------------------|
|-------------------------------------|
|-------------------------------------|
|-------------------------------------|
|-------------------------------------|

And that's it.

Yet another great tab from The Legend
Comments