Lostprophets - The Handsome Life Of Swing Chords & Tabs

 

The Handsome Life Of Swing Chords & Tabs

Lostprophets Chords & Tabs

Version: 1 Type: Bass Tab 0 ratings
1 star 2 stars 3 stars 4 stars 5 stars
comments

The Handsome Life Of Swing Bass Tab

   
Band- Lostprophets
Song- The Handsome Life Of Swing

Tuning: C,G,C,F

I'm almost 100% sure this tab is correct, i spent
a lot of time on it and i listened to the bass in 
the song very carefully. It's way more accurate
than the other tab.  Enjoy! 

/ = slide down          
h = hammer on           
                       
Intro/Chorus: (from 0:04-0:22)
F|------|
C|------|
G|------|
C|-0000-|

Riff/Chorus   (the slide from 8 to 1 is played slow)
F|------------------|
C|------------------|x4   
G|------------------|    
C|-000-0-0-8/1--1-1-|

Verse Riff 1:
F|------------------------|  
C|---3h5--3h5-----5--8-10-|
G|-6----------1-3---------|
C|------------------------|

Verse Riff 2:
F|------------------------|  
C|---3h5--3h5-----5--10-8-|
G|-6----------1-3---------|
C|------------------------|

Verse Riff 3:
F|------------------------|  
C|---3h5--3h5-------------|
G|-6----------1-3--3-3----|
C|------------------------|

Outro 1:
F|----------------------------------|
C|----------------------------------|
G|-55555555555555555555555555555555-|
C|----------------------------------|
[ Tab from: http://www.guitartabs.cc/tabs/l/lostprophets/the_handsome_life_of_swing_btab.html ]
F|---------------------------------|
C|---------------------------------|
G|---------------------------------|
C|-3h5-55-5-5-5-55--3h5-5-5-5-5-55-|

Outro 2:  (those are 1's, not 11's)
F|----------------------------------|
C|----------------------------------|
G|-11111111111111111111111111111111-|
C|----------------------------------|

F|---------------------------------|
C|---------------------------------|
G|---------------------------------|
C|-3h5-55-5-5-5-55--3h5-5-5-5-5-55-|

F|-----------------------------------|
C|-----------------------------------|
G|-1111111111111111-0004445554445500-|
C|-----------------------------------|

F|---------------------------------|
C|---------------------------------|
G|---------------------------------|
C|-3h5-55-5-5-5-55--3h5-5-5-5-5-55-|

End with:
F|--------3-------|
C|----3--------3--|
G|-1--------------|
C|----------------|

Order:
Intro/Chorus  x16
Riff/Chorus   x4
Verse 1       x1
Verse 2       x1
Verse 1       x1
Verse 3       x1
Intro/Chorus  x16
Riff/Chorus   x4
Verse 1       x1
Verse 2       x1 
Verse 1       x1
Verse 3       x1
Outro 1       x2
Outro 2       x1
End with      x1
Comments