Lostprophets - The Fake Sound Of Progress Chords & Tabs

 

The Fake Sound Of Progress Chords & Tabs

Lostprophets Chords & Tabs

Version: 3 Type: Tab 0 ratings
1 star 2 stars 3 stars 4 stars 5 stars
comments

The Fake Sound Of Progress Tab

lostprophets - fakesoundofprogress
tune to C

INTRO
GUITAR 1   -   clean
-----------(12)--(12)(12)----(12)--(12)(12)---------------
--(7)--(7)(7)-----------------------------(12)--(12)(12)--
----------------------------------------------------------
----------------------------------------------------------
----------------------------------------------------------
----------------------------------------------------------

GUITAR 2   -    clean
-----0-2---0-2----0-2-----0-2--
--0------2---------------------
---------------0-------2-------
-------------------------------
-------------------------------
-------------------------------

FILL  - distortion
----------------------------
----------------------------
----------------------------
--11/14--11/14-16-14\11-11--
----------------------------
----------------------------
[ Tab from: http://www.guitartabs.cc/tabs/l/lostprophets/the_fake_sound_of_progress_tab_ver_3.html ]
CHOURUS    -   distortion   -     both guitars
-----0-2-----0-2-----0-2-----0-2--
----------------------------------
----------------------------------
--4-------6-------0-------2-------
--4-------6-------0-------2-------
--4-------6-------0-------2-------

VERSE   -   clean    -    both guitars
--9--9--9--9--7--7--7--7--7--7--7--7--7--7--12\7--
--7--7--7--7--9--9--9--9-10-10-10-10--7--7--------
--9--9--9--9--9--9--9--9--9--9--9--9--9--9--------
--------------------------------------------------
--------------------------------------------------
--------------------------------------------------

PRE  CHOURUS    -    clean   -  guitar 1
------9-------9-----
----7---7---7---7---
--9-------9---------
--------------------
--------------------
--------------------
dothis a bunch of times then
both guitars  -  distortion
----------------
----------------
----------------
--222222222222--
--222222222222--
--222222222222--
PM.......................

then just use those riffs for the rest of the song
Comments