Lostprophets - The Fake Sound Of Progress Chords & Tabs

 

The Fake Sound Of Progress Chords & Tabs

Lostprophets Chords & Tabs

Version: 1 Type: Tab 0 ratings
1 star 2 stars 3 stars 4 stars 5 stars
comments

The Fake Sound Of Progress Tab

-----0-----0-----0-----0-------------------
---3-----3-----3-----3---------------------
------------------------------------------- (X4)
-------------------0-----------------------
-------------3-----------------------------
-0-----2-----------------------------------
[ Tab from: http://www.guitartabs.cc/tabs/l/lostprophets/the_fake_sound_of_progress_tab.html ]
-------------------------------------------
-------------------------------------------
------------------------------------------- (x2)
-------------------------------------------
-------------3-3-3-5-5-5-------------------
-0-0-0-2-2-2-------------------------------

-----0-----0-----0-----0-------------------
---3-----3-----3-----3---------------------
------------------------------------------- 
-------------5-----7----------------------- (x4)
-2-----4-----3-----5-----------------------
-0-----2----------------------------------- 
Comments