Lostprophets - The Fake Sound Of Progress Chords & Tabs

 

The Fake Sound Of Progress Chords & Tabs

Lostprophets Chords & Tabs

Version: 3 Type: Bass Tab 0 ratings
1 star 2 stars 3 stars 4 stars 5 stars
comments

The Fake Sound Of Progress Bass Tab

   
Lost Prophets
The Fake Sound Of Progress

Dropped D Tuning (D,A,D,G)

I decided to tab this even though im not really a LP fan, simply
because i couldnt find a fully right version of the tab.

Intro
G----------------------------------------------------|
D----------------------------------------------------|
A-----7-------9--------------------------------------|
D-----------------------10---------12----------------|

G----------------------------------------------------|
D----------------------------------------------------|
A---7-7-7-7--9-9-9-9---------------------------------|
D----------------------10-10-10-10--12-12-12-12------|

Pre-Verse

G----------------------------------------------------|
D------9-----9------9-----9----9-----9-----9-----9---|
A----7----7-----7------7-----7---7------7-----7------|
D----------------------------------------------------|
[ Tab from: http://www.guitartabs.cc/tabs/l/lostprophets/the_fake_sound_of_progress_btab_ver_3.html ]
Verse
G-----------------------------------------------------|
D-----------------------------------------------------|
A-----------------------------------------------------|
D--2--2/0--0--0/2--2--2--2/0--0--0--------------------|

Chorus/Main
G-----------------------------------------------------|
D-----------------------------------------------------|
A----7-7-7-7--9-9-9-9---------------------------------|
D-----------------------10-10-10-10--12-12-12-12------|

Heavy Part
(Im writing this without a bass by memory so this part
may not be 100% for now)

G-----------------------------------------------------|
D-----------------------------------------------------|
A----------------33333333-----------------------------|
D------22222222------------0000000000--77777777777----|

Think thats about it, ill fully correct later on
i think that that is about right though.

Any corrections/questions angerisagift03@hotmail.com

Tony
Comments