Lostprophets - Start Something Chords & Tabs

 

Start Something Chords & Tabs

Lostprophets Chords & Tabs

Version: 1 Type: Tab 0 ratings
1 star 2 stars 3 stars 4 stars 5 stars
comments

Start Something Tab

   
Tab #4.
Lostprophets - "Start Something" (Single, not the album.)
Tuning: Drop D
2 Guitar Parts
x = Muted String
~ = Hold Note
h = Hammer on
p = Pull off
/ = Slide

Intro (0:01) (w/ Strings in Background) 
(Repeat 2X, then at 0:31 play G2 part only.)
G1
e|---------------------------------------------------------------------------
B|---------------------------------------------------------------------------
G|---------------------------------------------------------------------------
D|---------------------------------------------------------------------------
A|-0-0-0-0-0-0------------------------0-0-0-0-0-0----------------------------
D|-0-0-0-0-0-0------------------------0-0-0-0-0-0----------------------------

G2
e|---------------------------------------------------------------------------
B|---------------------------------------------------------------------------
G|-------------7-7-7/5/7-7/8/7-7/8/7---------------7-7-7/5/7-7/8/7-7/8/7-----
D|-------------x-x-x/x/x-x/x/x-x/x/x---------------7-7-7/5/7-7/8/7-7/8/7-----
A|-------------5-5-5/3/5-5/6/5-5/6/5---------------5-5-5/3/5-5/6/5-5/6/5-----
D|---------------------------------------------------------------------------

G1
e|---------------------------------------------------------------------------
B|---------------------------------------------------------------------------
G|-------------3-------------------------------------------------------------
D|-------------3-------------------------------------------------------------
A|-0-0-0-0-0-0-1----------------------0-0-0-0-0-0----------------------------
D|-0-0-0-0-0-0------------------------0-0-0-0-0-0----------------------------

G2
e|---------------------------------------------------------------------------
B|---------------------------------------------------------------------------
G|-------------7-7-7/5/7-7/8/7-7/8/7---------------7-7-7/5/7-7/8/7-7/8/7-----
D|-------------x-x-x/x/x-x/x/x-x/x/x---------------x-x-x/x/x-x/x/x-x/x/x-----
A|-------------5-5-5/3/5-5/6/5-5/6/5---------------5-5-5/3/5-5/6/5-5/6/5-----
D|---------------------------------------------------------------------------

Verse (0:41) ("Start something.....") (Repeat 4x Per Verse)
G1
e|---------------------------------------------------------------------------
B|---------------------------------------------------------------------------
G|------3-3-3-3-3-3-3-3-3-3-3-3----------------------------------------------
D|------3-3-3-3-3-3-3-3-3-3-3-3----------------------------------------------
A|-3-3--1-1-1-1-1-1-1-1-1-1-1-1--3-5--0-0-0-0-0-0-0-0-0-0-0-0----------------
D|-3-3---------------------------3-5--0-0-0-0-0-0-0-0-0-0-0-0----------------

G2 (Not too sure, but this seems to work)
e|---------------------------------------------------------------------------
B|---------------------------------------------------------------------------
G|-7-7-7/5/7-7/8/7-7/8/7------10-12------------------------------------------
D|-x-x-x/x/x-x/x/x-x/x/x------x--x-------------------------------------------
A|-5-5-5/3/5-5/6/5-5/6/5------8--10---0-0-0-0-0-0-0-0-0-0-0-0----------------
D|------------------------------------0-0-0-0-0-0-0-0-0-0-0-0----------------
[ Tab from: http://www.guitartabs.cc/tabs/l/lostprophets/start_something_tab.html ]
Chorus (1:15)
G1 (Heavy Strumming)
e|---------------------------------------------------------------------------
B|---------------------------------------------------------------------------
G|---------------------------------------------------------------------------
D|---------------------------------------------------------------------------
A|-5-5-5--3h6--5p3h6-5-5-5p3h6-5-3-5-8888------------------------------------
D|---------------------------------------------------------------------------

G1
e|---------------------------------------------------------------------------
B|---------------------------------------------------------------------------
G|---------------------------------------------------------------------------
D|---------------------------------------------------------------------------
A|-5-5-5--3h6--5p3h6-5-5-5p3h6--5p3h6--5-5-5-3h6-5p3h6-5-3-5-8888------------
D|---------------------------------------------------------------------------

G2
e|---------------------------------------------------------------------------
B|---------------------------------------------------------------------------
G|---------------------------------------------------------------------------
D|---------------------------------------------------------------------------
A|-0-0-00--0-0-00--0-0-00--0-0-0-0-0-0-0-0--3-3-3-3-3-3-3-3-1-1-1-1-1-1-1-1--
D|-0-0-00--0-0-00--0-0-00--0-0-0-0-0-0-0-0--3-3-3-3-3-3-3-3-1-1-1-1-1-1-1-1--

G1
e|---------------------------------------------------------------------------
B|---------------------------------------------------------------------------
G|---------------------------------------------------------------------------
D|---------------------------------------------------------------------------
A|-5-5-5--3h6--5p3h6-5-5-5p3h6--5p3h6--5-5-5-3h6-5p3h6-5-3-5-8888------------
D|---------------------------------------------------------------------------

G2
e|---------------------------------------------------------------------------
B|---------------------------------------------------------------------------
G|---------------------------------------------------------------------------
D|---------------------------------------------------------------------------
A|-0-0--0-0--0-0--0-0--1-1--1-1--1-1--1-1--3-3-3-3-3-3-3-3-1-1-1-1-1-1-1-1---
D|-0-0--0-0--0-0--0-0--1-1--1-1--1-1--1-1--3-3-3-3-3-3-3-3-1-1-1-1-1-1-1-1---

G1/G2
e|---------------------------------------------------------------------------
B|---------------------------------------------------------------------------
G|---------------------------------------------------------------------------
D|-0~------------------------------------------------------------------------
A|-0~------------------------------------------------------------------------
D|-0~------------------------------------------------------------------------

Verse 2 (1:40) Repeat Verse 4x

Chorus (2:13)

Outro (2:35)
G1/G2
G2
e|---------------------------------------------------------------------------
B|---------------------------------------------------------------------------
G|---------------------3~----------------------------------------------------
D|---------------------3~----------------------------------------------------
A|-0~-1-1-1-0~--1-1-1--1~-1-1-1-0~-1-1-1~------------------------------------
D|-0~-1-1-1-0~--1-1-1-----1-1-1-0~-1-1-1~------------------------------------

LP is an awesome band with great guitar, and I can't match their awesomeness.
Any mistakes/corrections can be posted here or sent to DrNick311@nyc.rr.com.
Comments