Lostprophets - Shinobi Vs Dragon Ninja Chords & Tabs

 

Shinobi Vs Dragon Ninja Chords & Tabs

Lostprophets Chords & Tabs

Version: 9 Type: Tab 0 ratings
1 star 2 stars 3 stars 4 stars 5 stars
comments

Shinobi Vs Dragon Ninja Tab

Lostprophets/The Fake sound of progress 
Shinobi vs dragon ninja
tab hecha por Manuel,shinibi@hotmail.com

intro
cuerdas limpias

eb|------------------------------------------------------------------------|
Bb|------------------------------------------------------------------------|
Gb|------------------------------------------------0-----------0-----------|
Db|------------------------------------------------5-----------5-----------|
Ab|------------------------------------------------------------------------|
Eb|0-0--15-0-0--0-15-0-0--0-15-0--0-0-0-15/3-3--3-----3-3--3---------------|

eb|---------------------------------|
Bb|---------------------------------|
Gb|------------7----------7---------|
Db|------------0----------0---------|
Ab|--5-5--5-------5-5--5------------|
Eb|--5-5--5-------5-5--5------------|

Con distorsion

eb|----------------------------------------------------------------------|
Bb|----------------------------------------------------------------------|
Gb|----------------------------------------------0-----------0-----------|
Db|0-0-----0-0--0----0-0--0----0--0-0-0----------5-----------5-----------|
Ab|0-0-----0-0--0----0-0--0----0--0-0-0----------------------------------|
Eb|0-0--15-0-0--0-15-0-0--0-15-0--0-0-0-15/3-3--3-----3-3--3-------------|

eb|---------------------------------|
Bb|---------------------------------|
Gb|------------7----------7---------|
Db|------------0----------0---------|
Ab|--5-5--5-------5-5--5------------|
Eb|--5-5--5-------5-5--5------------|

eb|---------------------------------| 
Bb|---------------------------------|
Gb|---------------------------------|
Db|--0-0-00-0-0-000-----------------|
Ab|--0-0-00-0-0-000---------------|x2
Eb|--0-0-00-0-0-000-----------------|
         PM
eb|---------------------------------| 
Bb|---------------------------------|
Gb|---------------------------------|
Db|--3-3-33-3-3-333-----------------|
Ab|--3-3-33-3-3-333-----------------|
Eb|--3-3-33-3-3-333-----------------|
          PM
eb|---------------------------------| 
Bb|---------------------------------|
Gb|---------------------------------|
Db|--2-2-22-2-2-222-----------------|
Ab|--2-2-22-2-2-222-----------------|
Eb|--2-2-22-2-2-222-----------------|

     cuerdas limpias/verso
eb|------------------------------------------------------------| 
Bb|------------------------------------------------------------|
Gb|--9---9----9---9---9-----9----9---9---9---12---9--9---9--9--|
Db|-----9---9---9---10---10--10--------------------------------|
Ab|--------------------------------9---9---9----9---7---7------|
Eb|--------------------------------------------------------9--9|

eb|------------------------------------------------------------| 
Bb|------------------------------------------------------------|
Gb|--9---9----9---9---9-----9----14----14---14-----------------|
Db|-----9---9---9---10---10--10-----14----14-------------------|
Ab|------------------------------------------------------------|
Eb|------------------------------------------------------------|

Con distorsion
[ Tab from: http://www.guitartabs.cc/tabs/l/lostprophets/shinobi_vs_dragon_ninja_tab_ver_9.html ]
eb|----------------------------------------------------------------------|
Bb|----------------------------------------------------------------------|
Gb|----------------------------------------------0-----------0-----------|
Db|0-0-----0-0--0----0-0--0----0--0-0-0----------5-----------5-----------|
Ab|0-0-----0-0--0----0-0--0----0--0-0-0----------------------------------|
Eb|0-0--15-0-0--0-15-0-0--0-15-0--0-0-0-15/3-3--3-----3-3--3-------------|

eb|---------------------------------|
Bb|---------------------------------|
Gb|------------7----------7---------|
Db|------------0----------0---------|  
Ab|--5-5--5-------5-5--5------------|
Eb|--5-5--5-------5-5--5------------|

eb|---------------------------------| 
Bb|---------------------------------|
Gb|---------------------------------|
Db|--0-0-00-0-0-000-----------------|
Ab|--0-0-00-0-0-000---------------|x2
Eb|--0-0-00-0-0-000-----------------|
         PM
eb|---------------------------------| 
Bb|---------------------------------|
Gb|---------------------------------|
Db|--3-3-33-3-3-333-----------------|
Ab|--3-3-33-3-3-333-----------------|
Eb|--3-3-33-3-3-333-----------------|
          PM
eb|---------------------------------| 
Bb|---------------------------------|
Gb|---------------------------------|
Db|--2-2-22-2-2-222-----------------|
Ab|--2-2-22-2-2-222-----------------|
Eb|--2-2-22-2-2-222-----------------|

 cuerdas limpias/verso
eb|------------------------------------------------------------| 
Bb|------------------------------------------------------------|
Gb|--9---9----9---9---9-----9----9---9---9---12---9--9---9--9--|
Db|-----9---9---9---10---10--10--------------------------------|
Ab|--------------------------------9---9---9----9---7---7------|
Eb|--------------------------------------------------------9--9|

eb|------------------------------------------------------------| 
Bb|------------------------------------------------------------|
Gb|--9---9----9---9---9-----9----14----14---14-----------------|
Db|-----9---9---9---10---10--10-----14----14-------------------|
Ab|------------------------------------------------------------|
Eb|------------------------------------------------------------|

distorsion

eb|----------------------------------------------------------------------|
Bb|----------------------------------------------------------------------|
Gb|----------------------------------------------0-----------0-----------|
Db|0-0-----0-0--0----0-0--0----0--0-0-0----------5-----------5-----------|
Ab|0-0-----0-0--0----0-0--0----0--0-0-0----------------------------------|
Eb|0-0--15-0-0--0-15-0-0--0-15-0--0-0-0-15/3-3--3-----3-3--3-------------|

eb|---------------------------------|
Bb|---------------------------------|
Gb|------------7----------7---------|
Db|------------0----------0---------|
Ab|--5-5--5-------5-5--5------------|
Eb|--5-5--5-------5-5--5------------|

eb|---------------------------------| 
Bb|---------------------------------|
Gb|---------------------------------|
Db|----8----0---8---0---8:----------|
Ab|----8----0---8---0---8:----------|
Eb|----8----0---8---0---8:----------|

eb|-------------------------------------| 
Bb|-------------------------------------|
Gb|-------------------------------------|
Db|-------------------------------------|
Ab|-------------------------------------|
Eb|--0---0-0-0-0--0-0-0-0-0-0-0-0-0-0---|

eb|--------------------| 
Bb|--------------------|
Gb|--------------------|
Db|--------------------|
Ab|-0--0-3-2-0-0-0-3-2-|
Eb|-0--0-3-2-0-0-0-3-2-|

eb|---------------------------------| 
Bb|---------------------------------|
Gb|---------------------------------|
Db|--0-0-00-0-0-000-----------------|
Ab|--0-0-00-0-0-000-----------------|
Eb|--0-0-00-0-0-000-----------------|
         PM
Comments