Lostprophets - Shinobi Vs Dragon Ninja Chords & Tabs

 

Shinobi Vs Dragon Ninja Chords & Tabs

Lostprophets Chords & Tabs

Version: 6 Type: Tab 0 ratings
1 star 2 stars 3 stars 4 stars 5 stars
comments

Shinobi Vs Dragon Ninja Tab

   
pheonix719@yahoo.com

tuning (C,G,C,F,A,D)

Intro:One Guitar
D---------------------------------------------------
A---------------------------------------------------
F---------------------------------------------------
C---------------------------------------------------
G---------------------------------------------------
C-0-0-15-14-0-0-15-14-0-0-15-14-0-0-00-15-14--------

D---------------------------------------------------
A---------------------------------------------------
F-------0--------0--------0--------0----------------
C-------5--------5----------------------------------
G---------------------------------------------------
C-3-3-3---3-3-3----5-5-5----5-5-5----5--------------

Intro (part two)both guitars
D---------------------------------------------------
A---------------------------------------------------
F---------------------------------------------------
C-0-0--------0-0-0-------0-0-0---------0-0-0-0------
G-0-0--------0-0-0-------0-0-0---------0-0-0-0------
C-0-0--15-14-0-0-0-15-14-0-0-0--15-14--0-0-0-0-15-14


D---------------------------------------------------
A---------------------------------------------------
F-------0-------0---------0--------0----------------
C-3-3-3-5-3-3-3-5--5-5-5----5-5-5----5--------------
G-3-3-3---3-3-3----5-5-5----5-5-5----5--------------
C-3-3-3---3-3-3----5-5-5----5-5-5----5--------------

Verse:x2 both guitars
D---------------------------------------------------
A---------------------------------------------------
F---------------------------------------------------
C---------------------------------------------------
G---------------------------------------------------
C-0*0*00*0*0*000-0*0*00*0*0*000-3*3*33*3*3*333-2-2-22*2*2*222

Verse: (part two)x2
D---------------------------------------------------
A---------------------------------------10----------
F-10---10---10---10----10----10----10--------10----10
C----10---10---10---12----12----12----8----8----10--
G---------------------------------------------------
C---------------------------------------------------

Chorus:x2

D---------------------------------------------------
A---------------------------------------------------
F---------------------------------------------------
C-0-0--------0-0-0-------0-0-0---------0-0-0-0------
G-0-0--------0-0-0-------0-0-0---------0-0-0-0------
C-0-0--15-14-0-0-0-15-14-0-0-0--15-14--0-0-0-0-15-14


D---------------------------------------------------
A---------------------------------------------------
F-------0-------0---------0--------0----------------
C-3-3-3-5-3-3-3-5--5-5-5----5-5-5----5--------------
G-3-3-3---3-3-3----5-5-5----5-5-5----5--------------
C-3-3-3---3-3-3----5-5-5----5-5-5----5--------------
[ Tab from: http://www.guitartabs.cc/tabs/l/lostprophets/shinobi_vs_dragon_ninja_tab_ver_6.html ]
Verse: x2
D---------------------------------------------------
A---------------------------------------------------
F---------------------------------------------------
C---------------------------------------------------
G---------------------------------------------------
C-0*0*00*0*0*000-0*0*00*0*0*000-3*3*33*3*3*333-2-2-22*2*2*222

Verse: (part two)x2
D---------------------------------------------------
A---------------------------------------10----------
F-10---10---10---10----10----10----10--------10----10
C----10---10---10---12----12----12----8----8----10--
G---------------------------------------------------
C---------------------------------------------------
Chorus:x2

D---------------------------------------------------
A---------------------------------------------------
F---------------------------------------------------
C-0-0--------0-0-0-------0-0-0---------0-0-0-0------
G-0-0--------0-0-0-------0-0-0---------0-0-0-0------
C-0-0--15-14-0-0-0-15-14-0-0-0--15-14--0-0-0-0-15-14


D---------------------------------------------------
A---------------------------------------------------
F-------0-------0---------0--------0----------------
C-3-3-3-5-3-3-3-5--5-5-5----5-5-5----5--------------
G-3-3-3---3-3-3----5-5-5----5-5-5----5--------------
C-3-3-3---3-3-3----5-5-5----5-5-5----5--------------



Bridge: Both Guitars first time
D---------------------------------------------------
A---------------------------------------------------
F---------------------------------------------------
C-10------0------10----0----------------------------
G-8-------0------8-----0----------------------------
C-8-------0------8-----0----------------------------

Second Guitar comes in with this after the First 0's
D---------------------------------------------------
A---------------------------------------------------
F-10----10----10----10----10----10----10------------
C----10----10----10----10----10----10---------------
G---------------------------------------------------
C---------------------------------------------------

Bridge: Part 2
x4
D---------------------------------------------------
A---------------------------------------------------
F---------------------------------------------------
C---------------------------------------------------
G---------------------------------------------------
C-0*0*00*0*0*000*0*0*00*0*0*000---------------------

Outro:x4
D---------------------------------------------------
A---------------------------------------------------
F---------------------------------------------------
C-0-0--3-2---0-0-0-3-2---0-0-0--3-2---0-0-0-3-2-----
G-0-0--3-2---0-0-0-3-2---0-0-0--3-2---0-0-0-3-2-----
C-0-0--3-2- -0-0-0-3-2---0-0-0--3-2---0-0-0-3-2-----

D---------------------------------------------------
A---------------------------------------------------
F---------------------------------------------------
C---------------------------------------------------
G---------------------------------------------------
C-0*0*00*0*0*000*-----------------------------------

and thats how its done people. and stop submitting crappy tab!
Comments