Lostprophets - Shinobi Vs Dragon Ninja Chords & Tabs

 

Shinobi Vs Dragon Ninja Chords & Tabs

Lostprophets Chords & Tabs

Version: 5 Type: Tab 0 ratings
1 star 2 stars 3 stars 4 stars 5 stars
comments

Shinobi Vs Dragon Ninja Tab

   
#----------------------------------PLEASE NOTE---------------------------------#
#This file is the author's own work and represents their interpretation of the #
#song. You may only use this file for private study, scholarship, or research. #
#------------------------------------------------------------------------------#

LOST PROPHETS:SHINOBI-V-DRAGON NINJA
------------------------------------
TAB BY CHRIS KYURRE(kyurre@hotmail.com)

TUNING:DROPPED D AND 1 WHOLE STEP(C,G,C,F,A,D)

Note:TIMING AND RHYTHM IS NOT INCLUDED, BUT THE SONG
---- IS SIMPLE ENOUGH FOR THAT TO BE FIGURED OUT!!!!

INTRO
-----

1|--------------------------------------------|
2|--------------------------------------------|
3|--------------------------------------------|
4|--------------------------------------------|
5|------8\7--------8\7--------8\7---------8\7-|
6|-0-0-------0-0-0------0-0-0-----0-0-0-0-----|

alternatively play:

1|--------------------------------------------------|
2|--------------------------------------------------|
3|--------------------------------------------------|
4|--------------------------------------------------|
5|--------------------------------------------------|
6|-0-0--15^14--0-0-0-15^14--0-0-0-15^14-0-0-0-15^14-|

then:

1|--------------------------------------------|
2|--------------------------------------------|
3|--------0---------0---------0---------0-----|
4|--------5---------5---------5---------5-----|
5|--------------------------------------------|
6|-3-3-3-----3-3-3-----5-5-5-----5-5-5--------|

MAIN RIFF
---------

1|--------------------------------------------|
2|--------------------------------------------|
3|-----10\9-------10\9-------10\9--------10\9-|
4|--------------------------------------------|
5|-0-0--8\7--0-0-0-8\7--0-0-0-8\7-0-0-0-0-8\7-|
6|-0-0-------0-0-0------0-0-0-----0-0-0-0-----|

alternatively play:

1|----------------------------------------------------|
2|----------------------------------------------------|
3|----------------------------------------------------|
4|-0-0--15-14--0-0-0-15-14--0-0-0-15-14-0-0-0-0-15-14-|
5|-0-0--15-14--0-0-0-15-14--0-0-0-15-14-0-0-0-0-15-14-|
6|-0-0--15-14--0-0-0-15-14--0-0-0-15-14-0-0-0-0-15-14-|

then:

1|--------------------------------------------|
2|----------------------------8---------8-----|
3|--------0---------0---------0---------0-----|
4|--------5---------5---------5---------5-----|
5|-3-3-3-----3-3-3-----5-5-5-----5-5-5--------|
6|-3-3-3-----3-3-3-----5-5-5-----5-5-5--------|

VERSE
-----
[ Tab from: http://www.guitartabs.cc/tabs/l/lostprophets/shinobi_vs_dragon_ninja_tab_ver_5.html ]
1|-----------------|-----------------|-----------------|-----------------|
2|-----------------|-----------------|-----------------|-----------------|
3|-----------------|-----------------|-----------------|-----------------|
4|-0-0-0-0-0-0-0-0-|-0-0-0-0-0-0-0-0-|-3-3-3-3-3-3-3-3-|-2-2-2-2-3-2-2-2-|
5|-0-0-0-0-0-0-0-0-|-0-0-0-0-0-0-0-0-|-3-3-3-3-3-3-3-3-|-2-2-2-2-3-2-2-2-|
6|-0-0-0-0-0-0-0-0-|-0-0-0-0-0-0-0-0-|-3-3-3-3-3-3-3-3-|-2-2-2-2-3-2-2-2-|
  |------P.M------| |------P.M------| |------P.M------| |------P.M------|

PRE-CHORUS
----------

1|-------------------------------------|-------------------------------------|
2|-------------------------------------|-------------------------------------|
3|-10----10----10----10----10----10----|-10----14----10----10----10----------|
4|----10----10----10----12----12----12-|-------------------------------------|
5|-------------------------------------|----10----10----10----8-----8--------|
6|-------------------------------------|--------------------------------10---|

1|-------------------------------------|-------------------------------------|
2|-------------------------------------|-------------------------------------|
3|-10----10----10----10----10----10----|-14----14----14----14----14----14----|
4|----10----10----10----12----12----12-|----15----15----15----15----15----15-|
5|-------------------------------------|-------------------------------------|
6|-------------------------------------|-------------------------------------|

BREAKDOWN
---------

1|-----|-----|-----|-----|-----|---(PLAY-7X)-|-------|
2|-----|-----|-----|-----|-----|-------------|-------|
3|-----|-----|-----|-----|-----|-------------|-------|
4|--8--|--0--|--8--|--0--|--8--|-------------|--X-X--|
5|--8--|--0--|--8--|--0--|--8--|-------------|--X-X--|
6|--8--|--0--|--8--|--0--|--8--|-0-0-0-0-0-0-|--X-X--|
             
WITH:

1|-------------------------------------|
2|-------------------------------------|
3|-10----10----10----10----10----10----|
4|----10----10----10----10----10----10-|
5|-------------------------------------|
6|-------------------------------------|

(comes in on 3rd bar of BREAKDOWN)

OUTRO
-----

1|-----------------------|
2|-----------------------|
3|-----------------------|
4|--0-0--3\2--0-0-0-3\2--|
5|--0-0--3\2--0-0-0-3\2--|
6|--0-0--3\2--0-0-0-3\2--|

WITH:

6|-----5\4\3\2-----| (ALL NATURAL HARMONICS)

(comes in 5th time OUTRO is played)

END ON:

1|-----------------|
2|-----------------|
3|-----------------|
4|-0-0-0-0-0-0-0-0-|
5|-0-0-0-0-0-0-0-0-|
6|-0-0-0-0-0-0-0-0-|
  |------P.M------|

SONG ORDER:
----------

INTRO
MAIN RIFF      X2
VERSE          X2
PRE-CHORUS
MAIN RIFF      X2
VERSE          X2
PRE-CHORUS
MAIN RIFF      X2
BREAKDOWN
OUTRO          X8
Comments