Lostprophets - Shinobi Vs Dragon Ninja Chords & Tabs

 

Shinobi Vs Dragon Ninja Chords & Tabs

Lostprophets Chords & Tabs

Version: 4 Type: Tab 0 ratings
1 star 2 stars 3 stars 4 stars 5 stars
comments

Shinobi Vs Dragon Ninja Tab

Band: Lost Prophets
Name: Shinobi VS. Dragon Ninja
Tuning: Standard
Info: This is the same as the song practically, especially the intro,
the tuning is fine. Im not sure about verses, but heres the majority of it.


INTRO

e----------------------------------------------------------------
B----------------------------------------------------------------
G----------------------------------------------------------------
D----------------------------------------------------------------
A-3-3--6-5--333--6-5--333--6-5--333--6-5-----6-6--8--666-8-------
E----------------------------------------------------------------

e----------------------------------------------------------------
B----------------------------------------------------------------
G----------------------------------------------------------------
D----------------------------------------------------------------
A-8-88--10---8-88--10--------------------------------------------
E----------------------------------------------------------------

MAIN RIFF/CHORUS

NOTE: This is the same as the first only played on the D string as
well, try it with the distortion all the way up and barring the 
strings, but i think this sounds better

PLAY TWICE

SINGING: None
e----------------------------------------------------------------
B----------------------------------------------------------------
G----------------------------------------------------------------
D-3-3--6-5--333--6-5--333--6-5--333--6-5-----6-6--8--666-8-------
A-3-3--6-5--333--6-5--333--6-5--333--6-5-----6-6--8--666-8-------
E----------------------------------------------------------------


SINGING: None
e----------------------------------------------------------------
B----------------------------------------------------------------
G----------------------------------------------------------------
D-8-88--10---8-88--10--------------------------------------------
A-8-88--10---8-88--10--------------------------------------------
E----------------------------------------------------------------


VERSE 

NOTE: I think the guitars are "slapped" to big that effect, (the
strings are barred and where the pickups are is slapped!) Try 
strumming as well, would do the same thing. Distortion up as usual.
[ Tab from: http://www.guitartabs.cc/tabs/l/lostprophets/shinobi_vs_dragon_ninja_tab_ver_4.html ]
SINGING: Got it all to hide..... got it figured out
e----------------------------------------------------------------
B----------------------------------------------------------------
G----------------------------------------------------------------
D-3-3-33-33-3---3-3-33-33-3---7-7-77-77-7---6-6-66-66-6----------
A-3-3-33-33-3---3-3-33-33-3---7-7-77-77-7---6-6-66-66-6----------
E----------------------------------------------------------------

REPEATED TWICE, listen to song to get the rhythm right!



HIGH RIFF

SINGING: And I sit and wonder.........falling under
e----------------------------------------------------------------
B----------------------------------------------------------------
G----------------------------------------------------------------
D---13--13--13--13--13--13--15--13--13---------------------------
A-----13--13--13--13--13--13--15-13--13--------------------------
E----------------------------------------------------------------

e----------------------------------------------------------------
B----------------------------------------------------------------
G----------------------------------------------------------------
D--13--13--13--13--13--13--13--13---15--15--15--15--17--17--17--17
A----13--13--13--13--13--13--13-13----15--15--15--15--17--17--17--17
E----------------------------------------------------------------

THEN CHORUS TWICE

THEN VERSE TWICE

THEN HIGH RIFF

THEN CHORUS TWICE

INTERLUDE

SINGING: Cant make this out lol
e----------------------------------------------------------------
B----------------------------------------------------------------
G----------------------------------------------------------------
D--8---8--------8----6-5----8---8--6-----------------------------
A--8---8--------8----6-5----8---8--6-----------------------------
E----------------------------------------------------------------


Pause, there is a bit with only 1 guitar, (i think hes playing lol)
but i've no idea wot it is, doesn't sound like a guitar, but isnt 
really needed


HEAVY BIT

SINGING: None
e----------------------------------------------------------------
B----------------------------------------------------------------
G----------------------------------------------------------------
D-333--6-5--333--6-5--333--6-5--333--6-5---Repeat--Finish on--3--
A-333--6-5--333--6-5--333--6-5--333--6-5---Repeat-------------3--
E----------------------------------------------------------------

FINISH

NB- Distortion is used a lot, but i think thats just about right, 
there is more than one guitar, so experiment with bits

Thanks

LyCrAkE
Comments