Lostprophets - Shinobi Vs Dargon Ninja Chords & Tabs

 

Shinobi Vs Dargon Ninja Chords & Tabs

Lostprophets Chords & Tabs

Version: 1 Type: Bass Tab 0 ratings
1 star 2 stars 3 stars 4 stars 5 stars
comments

Shinobi Vs Dargon Ninja Bass Tab

Lost Prophets: Shinobi Vs Dragon Ninja
Tabbed by PodS
penny_dreadfullz@hotmail.com

[Note: I viewed the tabs on thois site and no offence to the tabbers but their pieces
appear wrong. The bridge on every tab seems sloppy and just placed in a hurry. I took
the time to make this perfect and put in the fingering and postioning.]

This sounds perfect if practiced. it seems alot but it is not that hard and mainly
repetitive. If you would prefer to do different fingering its your choice. This is
perfect please rate it! Good luck!

Key: Drop D
i= index finger m= middle
1234 43 2 1 3= correct fingers to use.
H= hammer on   r= let ring

Intro:
[wait for two riffs from guitar before entering]

    i m i m  i m i m i  i m i m i  i m i m i
G|------------------------------------------------------|
D|------------------------------------------------------|
A|--3-3-6-5--3-3-3-6-5--3-3-3-6-5--3-3-3-6-5------------|
D|------------------------------------------------------|
    1 1 4 3  1 1 1 4 3  1 1 1 4 3  1 1 1 4 3

   i m i m i m i m i m i  m i m i m
G|-------8-------8--------------------------------------|
D|-----------------------10-------10--------------------|
A|-6-6-6---6-6-6---8-8-8----8-8-8-----------------------|   x2
D|------------------------------------------------------|
   1 1 1 4 1 1 1 4 1 1 1  3 1 1 1  3

Verse riff:

    im i i im i m i im i i im i m i ii i m im i m i ii i m im i m i
G|------------------------------------------------------------------|
D|------------------------------------------------------------------|
A|--33-3-3-33-3-3-3-33-3-3-33-3-3-3-11-1-1-11-1-1-1-----------------|   x2
D|--------------------------------------------------33-3-3-33-3-3-3-|
    33 3 3 33 3 3 3 33 3 3 33 3 3 3 11 1 1 11 1 1 1 33 3 3 33 3 3 3
[ Tab from: http://www.guitartabs.cc/tabs/l/lostprophets/shinobi_vs_dargon_ninja_btab.html ]
Bridge:
[Note: dont forget to keep playing the riff even when Ian Wotkins/Vox sings
"everyone has gone". because the riff is played twice. dont panic fi you think
your behind I asure you it will fit and you should end up playing this riff up
untill the main riff.

   i m i m  i   i m i m  i   i m i m  i   i m i m i m
G|----------------------------------------------------|
D|---5---5--------5---5--------5---5------------------|
A|-3---3---1H3--3---3---1H3--3---3---1H3--------------|   x2
D|----------------------------------------3-3-3-1-1-1-|
   1 3 1 3 1 3  1 3 1 3 1 3  1 3 1 3 1 3  3 3 3 1 1 1

Breakdown:
[Note:Play these notes when guitar plays chords]
    m    i    m    i    m
G|-------------------------|
D|-------------------------|
A|-6r---3r---6r---3r---6r--| x1
D|-------------------------|
   4    1    4    1    4

Improvisation for bridge: [After the noted breakdown there is some scratching from
the Dj and and break of affects, i have come up with some ideas you could use for
this part]

    You Decide what fingers to tap with/use
G|-------------------------------------8-----8------10-|
D|---5-------5-------5-------5-------8-----8-----10----|
A|-3---5---3---5---3---5---3---5---6-----6-----8-------|
D|-----------------------------------------------------|

The Number of times you play this riff is up to you depending on how fast you want
to play it or can play it. Its played best when finger tapped]

alternitvatly: you could just tap on..

G|-----------------|
D|-----------------| ...and rub your right hand up the strings in palm-mute
A|--3--3--3--3--3--|    Fashion
D|-----------------|

Outro:

    i m i m i
G|----------------------------|
D|----------------------------|
A|--3-3-3-6-5-----------------| played 23 times by Lost prophits, as a cover
D|----------------------------| up to you
    1 1 1 4 3

Ending:

   ii i m ii m~
G|---------------|
D|---------------|
A|-33-3-3-33-3r--| x1
D|---------------|
   33  3 3 33 3
Comments