Lostprophets - Ode To Summer Chords & Tabs

 

Ode To Summer Chords & Tabs

Lostprophets Chords & Tabs

Version: 3 Type: Tab 0 ratings
1 star 2 stars 3 stars 4 stars 5 stars
comments

Ode To Summer Tab

   
Lostprophets - Ode To Summer
Tabbed: Will Sharp
Tuning : CGCFAD
Email: chimaira_tool@hotmail.com

Ok, heres the tab, frets are correct cos the pitch matches perfectly.  Also got
the quiet but cool variations on guitar 2's ending.  Enjoy.

Guitar 1: These frets are absolutely correct, others have put the same structure
	  in a different position but this position matches the cd. 

Because this is played so fast, you need to alternate-pick it, normal down picking 
can be done but it gets tiring after a while.  Or alternatively you
could use the Line 6 DL4 to make 1 repeat really fast...

D|------------------------------------------------------------------------|
A|--------------------------------------------8-8--10---------------------|
F|------9-9--7-7--9-9-(9/10)-10-10-(10\9)-9-9---------------9-9--7-7--9-9-|
C|--7-7-------------------------------------------------5-5---------------|
G|------------------------------------------------------------------------|
C|------------------------------------------------------------------------|

D|------------------------------------------------------------------------|
A|-------------------------8-8--10----------------------------------------|
F|-(9/10)-10-10-(10\9)-9-9---------------9-9--7-7--9-9-(9/10)-10-10-(10\9)|
C|------------------------------------------------------------------------|
G|-----------------------------------8-8----------------------------------|
C|------------------------------------------------------------------------|

						Repeat this whole riff 	 x4
D|------------------------------------------------------------------------|
A|-----8-8--10------------------------------------------------------------|
F|-9-9---------------9-9--7-7--9-9-------9-9--7-7--9-9--------------------|
C|------------------------------------------------------------------------|
G|---------------5-5-----------------7-7----------------------------------|
C|------------------------------------------------------------------------|

Guitar 2: comes in with slight feedback when guitar 1 plays the "8-8" on G string
	 (turn up volume at this point so it's max by the last "9-9" on F string) 

									 x3
D|------------------------------------------------------------------------|
A|------------------------------------------------------------------------|
F|------------------------------------------------------------------------|
C|--7-7---7-7---7-7---5-5---5-5---5-5---3-3---3-3---3-3---0-0---0-2---2-2-|
G|--7-7---7-7---7-7---5-5---5-5---5-5---3-3---3-3---3-3---0-0---0-2---2-2-|
C|--7-7---7-7---7-7---5-5---5-5---5-5---3-3---3-3---3-3---0-0---0-2---2-2-|
PM| . .   . .   . .   . .   . .   . .   . .   . .   . .   . .   . .   . .


BREAK:
Guitar 2:
D|--------------------------------------------------------------------10~-|
A|----------(5~)--------------(5~)----------------(5~)----------------10~-|
F|----------(7~)--------------(7~)----------------(7~)----------------10~-|
C|--7~-------5~-------3~-------0~--------7~--------5~-------3~-------(12~)|
G|--7~-------5~-------3~-------0~--------7~--------5~-------3~-------(12~)|
C|--7~-------5~-------3~-------0~--------7~--------5~-------3~------------|

Guitar 1: Has kinda a flange effect on
D|--------------------------------------------------------------------10~-|
A|--------------------------------------------------------------------10~-|
F|--9~-------9~-------5~-------2~--------9~--------9~-------5~--------10~-|
C|--7~-------7~-------3~-------0~--------7~--------7~-------3~-------(12~)|
G|--7~------10~-------3~-------0~--------7~-------10~-------3~-------(12~)|
C|------------------------------------------------------------------------|


PRE-CHORUS
Guitar 2:
D|--------------------------------------------------------------------10~-|
A|--------------------------------------------------------------------10~-|
F|--------------------------------------------------------------------10~-|
C|--7~-------5~-------3~-------0~--------7~--------5~-------3~-------(12~)|
G|--7~-------5~-------3~-------0~--------7~--------5~-------3~-------(12~)|
C|--7~-------5~-------3~-------0~--------7~--------5~-------3~------------|

Guitar 1:	       x3					x3
D|----------------------|-----------------|----------------------|--10~---|
A|----------------------|-----------------|----------------------|--10~---|
F|----------------------|-----------------|----------------------|--10~---|
C|-9--7-7--9-9/10\9-9-7-|--5--7-7--5-7-5--|-9--7-7--9-9/10\9-9-7-|-(12~)--|
G|----------------------|-----------------|----------------------|-(12~)--|
C|----------------------|-----------------|----------------------|--------|

There is a bassy overlay over all this which sounds like Guitar 2 plays it:
D|------------------------------------------------------------------------|
A|------------------------------------------------------------------------|
F|------------------------------------------------------------------------|
C|------------------------------------------------------------------------|
G|-12-12-12-12-12-12--10-10-10-10-10-10--8-8-8-8-8-8-8--5-5-5-5-5-5-------|
C|------------------------------------------------------------------------|


CHORUS: The 1st repeat is just Guitar 1, 2nd repeat is both guitars but on
	the 2nd repeat the chorus is cut short when the 12,12,14,14 chord
	(C,G,C and F strings) is reached.
D|------------------------------------------------------------------------|
A|------------------------------------------------------------------------|
F|------------------------------------------------------------------------|
C|--8-8-8-8---8-8-8-8---8-8-8-8/10-10-10-10---10-10-10-10---10-10-10-10/12|
G|--8-8-8-8---8-8-8-8---8-8-8-8/10-10-10-10---10-10-10-10---10-10-10-10/12|
C|--8-8-8-8---8-8-8-8---8-8-8-8/10-10-10-10---10-10-10-10---10-10-10-10/12|

D|------------------------------------------------------------------------|
A|------------------------------------------------------------------------|
F|------------------------------------------------------------------------|
C|-12-12-12---12-12-12-12---12-12-12-12/15-15-15-15---15-15-15-15---15-15-|
G|-12-12-12---12-12-12-12---12-12-12-12/15-15-15-15---15-15-15-15---15-15-|
C|-12-12-12---12-12-12-12---12-12-12-12/15-15-15-15---15-15-15-15---15-15-|
[ Tab from: http://www.guitartabs.cc/tabs/l/lostprophets/ode_to_summer_tab_ver_3.html ]
D|------------------------------------------------------------------------|
A|------------------------------------------------------------------------|
F|-10-10-10-10--10-10-10-10--10-10-10-10/12-12-12-12---12-12-12-12---12-12|
C|-10-10-10-10--10-10-10-10--10-10-10-10/12-12-12-12---12-12-12-12---12-12|
G|--8--8--8--8---8--8--8--8---8--8--8--8/10-10-10-10---10-10-10-10---10-10|
C|--8--8--8--8---8--8--8--8---8--8--8--8/10-10-10-10---10-10-10-10---10-10|

D|------------------------------------------------------------------------|
A|------------------------------------------------------------------------|
F|-12-12/14-14-14-14---14-14-14-14---14-14-14-14/17-17-17-17---17-17-17-17|
C|-12-12/14-14-14-14---14-14-14-14---14-14-14-14/17-17-17-17---17-17-17-17|
G|-10-10/12-12-12-12---12-12-12-12---12-12-12-12/15-15-15-15---15-15-15-15|
C|-10-10/12-12-12-12---12-12-12-12---12-12-12-12/15-15-15-15---15-15-15-15|

									 x2
D|------------------------------------------------------------------------|
A|------------------------------------------------------------------------|
F|---17-17-17-17----------------------------------------------------------|
C|---17-17-17-17----------------------------------------------------------|
G|---15-15-15-15----------------------------------------------------------|
C|---15-15-15-15----------------------------------------------------------|


BRIDGE:
Guitar 1:								 x2
D|------------------------------------------------------------------------|
A|------------------------------------------------------------------------|
F|------------------------------------------------------------------------|
C|--12-x--12-x--12-x--12-x--12-x------------------------------------------|
G|--12-x--12-x--12-x--12-x--12-x------------------------------------------|
C|--12-x--12-x--12-x--12-x--12-x------------------------------------------|

Guitar 2: (play the open strings, let them ring for a second then mute with
	   palm)
									 x2
D|------------------------------------------------------------------------|
A|------------------------------------------------------------------------|
F|------------------------------------------------------------------------|
C|--0~.--0~.--0~.--0~.--0~.-----------------------------------------------|
G|--0~.--0~.--0~.--0~.--0~.-----------------------------------------------|
C|--0~.--0~.--0~.--0~.--0~.-----------------------------------------------|

Repeat Chorus again: but both guitars play together from the beginning but 
		     Guitar 1 plays the normal C,G,C chords while Guitar 2 
		     plays the chords with the 2 higher frets on C and F 
		     strings.

Repeat Bridge again: but it is extended to 8 repeats.  On the 8th repeat, the
		    very last chord played by each guitar is replaced by this:

    Guitar 1:	      Guitar 2:
D|-----------------|------------------------------------------------------|
A|-----------------|------------------------------------------------------|
F|-----------------|------------------------------------------------------|
C|--12-12-12-12~---|--0-0-0-0~--------------------------------------------|
G|--12-12-12-12~---|--0-0-0-0~--------------------------------------------|
C|--12-12-12-12~---|--0-0-0-0~--------------------------------------------|

Then repeat the bridge again (with its normal 2 repeats)


CHORUS:
Guitar 1:
D|-----------------------|-----------------------|------------------------|
A|--------------------8--|--------------------8--|--------------------8---|
F|----9-7-9-9/10-10\9----|--0-9-7-9-9/10-10\9----|--5-9-7-9-9/10-10\9-----|
C|--7--------------------|-----------------------|------------------------|
G|-----------------------|-----------------------|------------------------|
C|-----------------------|-----------------------|------------------------|

 (repeat this whole riff) x8  On the 8th repeat, end on this fret:
D|-------------------------|----------------------------------------------|
A|-------------------8-10--|----------------------------------------------|
F|-5-9-7-9-9/10-10\9-------|----------------------------------------------|
C|-------------------------|----------------------------------------------|
G|-------------------------|--7~------------------------------------------|
C|-------------------------|----------------------------------------------|

Guitar 2:
D|------------------------------------------------------------------------|
A|------------------------------------------------------------------------|
F|-----------10-10-10-10-------------------------12-12-12-12--------------|
C|--8-8-8-8--10-10-10-10---8-8-8-8/10-10-10-10---12-12-12-12---10-10-10-10|
G|--8-8-8-8---8--8--8--8---8-8-8-8/10-10-10-10---10-10-10-10---10-10-10-10|
C|--8-8-8-8---8--8--8--8---8-8-8-8/10-10-10-10---10-10-10-10---10-10-10-10|

D|------------------------------------------------------------------------|
A|------------------------------------------------------------------------|
F|---------------14-14-14-14-----------------------------17-17-17/19-19-19|
C|/12-12-12-12---14-14-14-14---12-12-12-12/15-15-15-15---17-17-17/19-19-19|
G|/12-12-12-12---12-12-12-12---12-12-12-12/15-15-15-15---15-15-15/17-17-17|
C|/12-12-12-12---12-12-12-12---12-12-12-12/15-15-15-15---15-15-15--x--x--x|

D|------------------------------------------------------------------------|
A|------------------------------------------------------------------------|
F|-19\17-17-17-------------10-10-10-10-------------------------12-12-12-12|
C|-19\17-17-17----8-8-8-8--10-10-10-10---8-8-8-8/10-10-10-10---12-12-12-12|
G|-17\15-15-15----8-8-8-8---8--8--8--8---8-8-8-8/10-10-10-10---10-10-10-10|
C|--x-15-15-15----8-8-8-8---8--8--8--8---8-8-8-8/10-10-10-10---10-10-10-10|

D|------------------------------------------------------------------------|
A|------------------------------------------------------------------------|
F|---------------------------14-14-14-14-----------------------------17-17|
C|-10-10-10-10/12-12-12-12---14-14-14-14---12-12-12-12/15-15-15-15---17-17|
G|-10-10-10-10/12-12-12-12---12-12-12-12---12-12-12-12/15-15-15-15---15-15|
C|-10-10-10-10/12-12-12-12---12-12-12-12---12-12-12-12/15-15-15-15---15-15|

		  x3
D|-----------------|------------------------------------------------------|
A|-----------------|------------------------------------------------------|
F|-17-17.--17-17.--|------------------------------------------------------|
C|-17-17.--17-17.--|--8~--------------------------------------------------|
G|-15-15.--15-15.--|--8~--------------------------------------------------|
C|-15-15.--15-15.--|--8~--------------------------------------------------|

Thats it, questions, comments - email me.
Comments