Lostprophets - Ode To Summer Chords & Tabs

 

Ode To Summer Chords & Tabs

Lostprophets Chords & Tabs

Version: 2 Type: Tab 0 ratings
1 star 2 stars 3 stars 4 stars 5 stars
comments

Ode To Summer Tab

ARTIST: Lostprophets
TITLE:  Ode To Summer
TABBER:	Luke Charman (luke@so.org)
ALBUM:  The Fake Sound Of Progress
GENRE:  Nu Metal
TUNING:	Dropped D (If you want to play it in Dropped C like LP do, play it all up two frets)

---

Intro (Guitar 1):

e|---------------------------|---------------------------|
B|--------------------66-88--|--------------------66-88--|
G|-----77-55-77-88-77--------|-----77-55-77-88-77--------|
D|--55-----------------------|--33-----------------------|
A|---------------------------|---------------------------|
D|---------------------------|---------------------------|
[ Tab from: http://www.guitartabs.cc/tabs/l/lostprophets/ode_to_summer_tab_ver_2.html ]
e|---------------------------|---------------------------|
B|--------------------66-88--|---------------------------|
G|-----77-55-77-88-77--------|-----77-55-77----77-55-77--|
D|---------------------------|---------------------------|
A|--66-----------------------|--33----------55-----------|
D|---------------------------|---------------------------|

Intro (Guitar 2):

e|------------------------------------------|
B|------------------------------------------|
G|------------------------------------------|
D|--77-77-77--55-55-55--33-33-33--00-00-00--|
A|--77-77-77--55-55-55--33-33-33--00-00-00--|
D|--77-77-77--55-55-55--33-33-33--00-00-00--|

---

Comments? Questions? Suggestions? luke@so.org
Comments