Lostprophets - Lately Chords & Tabs

 

Lately Chords & Tabs

Lostprophets Chords & Tabs

Version: 1 Type: Tab 0 ratings
1 star 2 stars 3 stars 4 stars 5 stars
comments

Lately Tab

This is the one u all want!!!
tabbed by Nik
its the one off the kerrang wekkender and the NME live thingy!!!
enjoy - its easy!

Tuning: Drop D (ebgdaD)

Intro
|-------------------------------------|-second time-|
|-------------------------------------|-------------|
|-----3333-----5555-----777-8-7-------|--(7)-xxxx---|
|-----3333-----5555-----777-8-7-------|--(7)-xxxx---|
|-1-1------3-3------5-5---------77-8--|--(5)-xxxx---|
|-1-1------3-3------5-5---------77-8--|--(5)-xxxx---|

HEAVY INTRO - distortion
|-------------------------------------|
|-------------------------------------|
|-------------------------------------| X2
|-----3333-----5555-----7777-8\-------|
|-1-1------3-3------5-5---------77-8--|
|-1-1------3-3------5-5---------77-8--|

|-----|
|-----|
|-10~-|
|-10~-|
|-8-~-|
|-8-~-|

|-----------------------------|--------------------------------|
|----6---------6----6/8\6\\\--|--------------------18------15--|
|------5-----5---5------------|--------15----14----------------| 
|---------3~------------------|-----15----15----15-----15------|
|-----------------------------|--------------------------------|
|-----------------------------|--------------------------------|
[ Tab from: http://www.guitartabs.cc/tabs/l/lostprophets/lately_tab.html ]
|---------------------------------------------|
|---------------------------------------------|
|--------15----14----17-----15----14-12/14-12~| 
|-----15----15----15-----15----15-------------|
|---------------------------------------------|
|---------------------------------------------|

|---------------------------------|
|---------------------------------|
|---13-13-13--17-17-17--15-15-15--|
|---15-15-15--15-15-15--15-15-15--|
|---------------------------------|
|---------------------------------|

--------------------------------|
|--------------------------------|
|--------------------------------|
|---10-10/-12-12-/-14-14---15-15-|
|---8--8-/-10-10-/-12-12-/-13-13-|
|--------------------------------|

|-----------------------------|
|-----------------------------|
|--3-3---3-3--3-3--3-3--5555--|
|--3-3---3-3--3-3--3-3--5555--|
|--1-1---1-1--1-1--1-1--3333--|
|--1-1---1-1--1-1--1-1--3333--|

|------------------------------|
|------------------------------|
|--3---3---3---3---------------|
|--3---3---3---3-etc-1-3-5-3-1-|
|--1---1---1---1-----1-3-5-3-1-|
|--1---1---1---1-----1-3-5-3-1-|

|---------------------------|
|---------------------------|
|---------------------------|
|---------------------------|
|-1-1----3-3----5-5--5-5----|
|-1-1----3-3----5-5--5-5----|

|----------------------|-second--|
|----------------------|--time---|
|--3-3---3-3--3-3--3-3-|--5555---|
|--3-3---3-3--3-3--3-3-|--5555---|
|--1-1---1-1--1-1--1-1-|--3333---|
|--1-1---1-1--1-1--1-1-|--3333---|

|------------------------------|
|------------------------------|
|--3---3---3---3---------------|
|--3---3---3---3-etc-1-3-5-3-1-|
|--1---1---1---1-----1-3-5-3-1-|
|--1---1---1---1-----1-3-5-3-1-|
Comments