Lostprophets - Last Train Home Chords & Tabs

 

Last Train Home Chords & Tabs

Lostprophets Chords & Tabs

Version: 5 Type: Tab 0 ratings
1 star 2 stars 3 stars 4 stars 5 stars
comments

Last Train Home Tab

Artist: Lost Prophets
Title: Last Train Home
Album: Start Something
Tuning: Dropped D (DADGBe) Low to High
Tabber: a_guy_called_richard@hotmail.com

Seeing as no-one has posted a correct tab for this song,
i'll do it instead. How hard can it possibly be?

I wasn't going to post it because there's so many, but
i couldn't resist

Intro (Lead):
|---------------------------------------------------------|
|---------------------------------------------------------|
|-----16-----16-----16-----16-----16-----16-----16-----16-|
|---17-----17-----17-----17-----17-----17-----17-----17---|
|-15-----15-----15-----15---------------------------------|
|-----------------------------14-----14-----14-----14-----|

|---------------------------------------------------------|
|---------------------------------------------------------|
|-----16-----16-----16-----16-----14-----14-----14-----14-|
|---17-----17-----17-----17-----17-----17-----17-----17---|
|---------------------------------------------------------|
|-0------0------0------0------0------0------0------0------|




Chorus (Rhythm): On the 0's part, mute the strings after each
group of 0's.
|---------------------------------------------------------|
|---------------------------------------------------------|
|-5-5-5-5-5-5-5-5-5-5-5-5-5-5-----------------------------|
|-5-5-5-5-5-5-5-5-5-5-5-5-5-5-2-2-2-2-2-2-2-2-2-2-2-2-2-2-|
|-3-3-3-3-3-3-3-3-3-3-3-3-3-3-2-2-2-2-2-2-2-2-2-2-2-2-2-2-|
|-----------------------------2-2-2-2-2-2-2-2-2-2-2-2-2-2-|

|-----------------------------------------------------------|
|-----------------------------------------------------------|
|-----------------------------------------------------------|
|-0-0---0-0-0---0-0-0---0-0-0---0-0-0---0-0-0---0-0-0---0-0-|
|-0-0---0-0-0---0-0-0---0-0-0---0-0-0---0-0-0---0-0-0---0-0-|
|-0-0---0-0-0---0-0-0---0-0-0---0-0-0---0-0-0---0-0-0---0-0-|

Chorus (Lead): This is just the intro
|---------------------------------------------------------|
|---------------------------------------------------------|
|-----16-----16-----16-----16-----16-----16-----16-----16-|
|---17-----17-----17-----17-----17-----17-----17-----17---|
|-15-----15-----15-----15---------------------------------|
|-----------------------------14-----14-----14-----14-----|

|---------------------------------------------------------|
|---------------------------------------------------------|
|-----16-----16-----16-----16-----14-----14-----14-----14-|
|---17-----17-----17-----17-----17-----17-----17-----17---|
|---------------------------------------------------------|
|-0------0------0------0------0------0------0------0------|




Verse (Lead): Strum each of these chord things a few times.
The only reason i haven't put the strumming pattern is 
becasue it would be huge.
You can hear the strumming pattern easily on the song.
|--------------------------------------------|
|--------------------------------------------|
|-16--------16-------16----14----16----14----| x2
|-17--------17-------17----17----17----17----|
|-15-----------------------------------------|
|-----------14-------0-----0-----0-----0-----|

|--------------------------------------------------------|
|--------------------------------------------------------|
|-16---19---16---16---19---16---16----14--19--16--19--14-|
|-17---17---17---17---17---17---17----17--17--17--17--17-|
|-15---15---15-------------------------------------------|
|----------------14---14---14---0-----0---0---0---0---0--|

|--------------------------------------------|
|--------------------------------------------|
|-16--------16-------16----14----16----14----|
|-17--------17-------17----17----17----17----|
|-15-----------------------------------------|
|-----------14-------0-----0-----0-----0-----|

If you can't mute the A string on the last chords dont worry, 
it saounds fine with the A string too.

It looks really confusing, but just listen to the song and
you can hear where those extra notes are.




Pre-Chorus (Rhythm): Not the exact amount
|---------------------------------------------|
|---------------------------------------------|
|---------------------------------------------|
|-7-7-7-7-7-7-7-7-9-9-10-10-10-10-10-10-10-10-|
|-7-7-7-7-7-7-7-7-9-9-10-10-10-10-10-10-10-10-|
|-7-7-7-7-7-7-7-7-9-9-10-10-10-10-10-10-10-10-|

|---------------------------------------------|
|---------------------------------------------|
|---------------------------------------------|
|-5-5-5-5-5-5-5-5-5-5-0-0-0-0-0-0-0-0-0-0-0-0-|
|-5-5-5-5-5-5-5-5-5-5-0-0-0-0-0-0-0-0-0-0-0-0-|
|-5-5-5-5-5-5-5-5-5-5-0-0-0-0-0-0-0-0-0-0-0-0-|

Pre-Chorus (Lead): Not the exact amount
|-----------------------------------------------|
|-----------------------------------------------|
|-14-14-14-14-\12-12-12-12-\7-7-7-7-14-14-14-14-|
|-x--x--x--x---x--x--x--x---x-x-x-x-x--x--x--x--|
|-12-12-12-12-\10-10-10-10-\5-5-5-5-12-12-12-12-|
|-----------------------------------------------|

[ Tab from: http://www.guitartabs.cc/tabs/l/lostprophets/last_train_home_tab_ver_5.html ]
End of Pre-Chorus:
|-----------------------------|
|-----------------------------|
|-----16-----16-----16--------|
|---17-----17-----17----------|
|-15-----15-----15------------|
|-----------------------------|



Chorus (Rhythm): On the 0's part, mute the strings after each
group of 0's.
|---------------------------------------------------------|
|---------------------------------------------------------|
|-5-5-5-5-5-5-5-5-5-5-5-5-5-5-----------------------------|
|-5-5-5-5-5-5-5-5-5-5-5-5-5-5-2-2-2-2-2-2-2-2-2-2-2-2-2-2-|
|-3-3-3-3-3-3-3-3-3-3-3-3-3-3-2-2-2-2-2-2-2-2-2-2-2-2-2-2-|
|-----------------------------2-2-2-2-2-2-2-2-2-2-2-2-2-2-|

|-----------------------------------------------------------|
|-----------------------------------------------------------|
|-----------------------------------------------------------|
|-0-0---0-0-0---0-0-0---0-0-0---0-0-0---0-0-0---0-0-0---0-0-|
|-0-0---0-0-0---0-0-0---0-0-0---0-0-0---0-0-0---0-0-0---0-0-|
|-0-0---0-0-0---0-0-0---0-0-0---0-0-0---0-0-0---0-0-0---0-0-|

Chorus (Lead):
|---------------------------------------------------------|
|---------------------------------------------------------|
|-----16-----16-----16-----16-----16-----16-----16-----16-|
|---17-----17-----17-----17-----17-----17-----17-----17---|
|-15-----15-----15-----15---------------------------------|
|-----------------------------14-----14-----14-----14-----|

|---------------------------------------------------------|
|---------------------------------------------------------|
|-----16-----16-----16-----16-----14-----14-----14-----14-|
|---17-----17-----17-----17-----17-----17-----17-----17---|
|---------------------------------------------------------|
|-0------0------0------0------0------0------0------0------|



Then play another Verse


And Pre-Chorus


And another Chorus



Interlude Pt.1 (Rhythm): I reckon this bit is played with the open
bottom strings in the other tuning they use. Not sure what its
called.
|-------------------------------------------------------------|
|-------------------------------------------------------------|
|-5-5---5-5-5---5-5-5---5-5-5---5-5-5---5-5-5---5-5-5---5-5-5-|
|-5-5---5-5-5---5-5-5---5-5-5---5-5-5---5-5-5---5-5-5---5-5-5-|
|-3-3---3-3-3---3-3-3---3-3-3---3-3-3---3-3-3---3-3-3---3-3-3-|
|-------------------------------------------------------------|
PM. .   . . .   . . .   . . .   . . .   . . .   . . .   . . .

|-------------------------------------------------------------|
|-------------------------------------------------------------|
|-------------------------------------------------------------|
|-0-0---0-0-0---0-0-0---0-0-0---0-0-0---0-0-0---0-0-0---0-0-0-|
|-0-0---0-0-0---0-0-0---0-0-0---0-0-0---0-0-0---0-0-0---0-0-0-|
|-0-0---0-0-0---0-0-0---0-0-0---0-0-0---0-0-0---0-0-0---0-0-0-|


Interlude Pt.1 (Lead): Not sure if the first bits right, but 
the second is.
|-----0-------0-------0-------0-------0-------0-------0-------|
|-----0-------0-------0-------0-------0-------0-------0-------|
|-----0-------0-------0-------0-------0-------0-------0-------|
|-------------------------------------------------------------|
|-------------------------------------------------------------|
|-------------------------------------------------------------|

|-2h3p0--2h3p0--2h3p0--2h3p0--2h3p0--2h3p0--0-----------------|
|-------------------------------------------------------------|
|-------------------------------------------------------------|
|-------------------------------------------------------------|
|-------------------------------------------------------------|
|-------------------------------------------------------------|



Interlude Pt.2 (Lead):
|-------------------------------------------------------|
|-------------------------------------------------------|
|--14----------14b15r14----------16-----16----16-----16-|
|------------------------------17-----17----17-----17---|
|-------------------------------------------------------|
|----------------------------0------0------0-----0------|

|--------------------------|
|--------------------------|
|-----14----14----14----14-|
|---17----17----17----17---|
|--------------------------|
|-0------0-----0-----0-----|


Then play a Chorus, except at the end the Lead guitar plays this:
|---------------------------------------------------------|
|---------------------------------------------------------|
|-----16-----16-----19-----16-----16-----16-----19-----16-|
|---17-----17-----17-----17-----17-----17-----17-----17---|
|-15-----15-----15-----15---------------------------------|
|-----------------------------14-----14-----14-----14-----|

|---------------------------------------------------------|
|---------------------------------------------------------|
|-----16-----16-----19-----16-----14-----14-----14-----14-|
|---17-----17-----17-----17-----17-----17-----17-----17---|
|---------------------------------------------------------|
|-0------0------0------0------0------0------0------0------|


End (Lead):
|---------------------------|
|---------------------------|
|---16-----16-----16-----14-|
|--17-----17-----17-----17--|
|-15------------------------|
|--------14-----0------0----|



Now that wasn't hard was it?


Yet another great tab from The Legend
Comments