Lostprophets - Last Train Home Chords & Tabs

 

Last Train Home Chords & Tabs

Lostprophets Chords & Tabs

Version: 1 Type: Tab 0 ratings
1 star 2 stars 3 stars 4 stars 5 stars
comments

Last Train Home Tab

http://lostprophets.com/
Song: Last Train Home
Artist: Lost Prophets
Album: Start Something (release date '04)
Tabber: Ryan Bechtel
E-mail: cloudstrife_11@hotmail.com or dropd_rock@hotmail.com

~ = hold note
> = you figure out strumming pattern
. = palm mute

Intro:
Clean

E|------------------------------------------------------------------
B|------------------------------------------------------------------
G|--------------16--------------16-------------16---------------16--
D|----------17--------------17-------------17---------------17------
A|-----15--------------15-------------15---------------15-----------
D|------------------------------------------------------------------

E|--------------------------------------------------------------
B|--------------------------------------------------------------
G|-------------16------------16--------------16----------16-----
D|---------17------------17-------------17-----------17---------
A|--------------------------------------------------------------
D|----14------------14-------------14-----------14--------------
[ Tab from: http://www.guitartabs.cc/tabs/l/lostprophets/last_train_home_tab.html ]
E|--------------------------------------------------------------
B|--------------------------------------------------------------
G|-------------16------------16-----------16-----------16-------
D|---------17------------17-----------17-----------17-----------
A|--------------------------------------------------------------
D|------0-------------0------------0------------0---------------

E|--------------------------------------------------------------
B|--------------------------------------------------------------
G|----------14------------14-----------14------------14---------
D|------17------------17-----------17------------17-------------
A|--------------------------------------------------------------
D|--0-------------0------------0-------------0------------------

Intro2/Chrorus:
Distortion
(You figure out strumming)

E|-------------------------------------------------
B|-------------------------------------------------
G|--5>---------------------------------------------
D|--5>--2>--00--000--000--000--000--000--000--000--
A|--3>--2>--00--000--000--000--000--000--000--000--
D|------2>--00--000--000--000--000--000--000--000--


Verse: only first riff
Clean

E|------------------------------
B|------------------------------
G|--5~--------------------------
D|--5~--2~--5>--0>--------------
A|--3~--2~--5>--0>--------------
D|------2~--5>--0>--------------

Verse:
Clean

E|-------------------------------
B|-------------------------------
G|--5>---------------------------
D|--5>--2>--5>--0>---------------
A|--3>--2>--5>--0>---------------
D|------2>--5>--0>---------------

Pre-Chorus:
Distortion

E|-------------------------------
B|-------------------------------
G|-------------------------------
D|--7>--10>--5>--0>--------------
A|--7>--10>--5>--0>--------------
D|--7>--10>--5>--0>--------------
Comments