Lostprophets - Last Summer Chords & Tabs

 

Last Summer Chords & Tabs

Lostprophets Chords & Tabs

Version: 6 Type: Tab 0 ratings
1 star 2 stars 3 stars 4 stars 5 stars
comments

Last Summer Tab

   
Lost Prophets Last Summer
From the album Start Something
Tabbed by Liam
Email: guitar_rocker_47@hotmail.com
Tuning 
E A D G B E (Guitar1)
D A D G B E (Guitar2)

Intro
Guitar1 (played clean)
e|-----x-x-x-7-5-x-x-x-x-x-x-x-5h7--x-x-x-7-5-x-x-x-x-x-x-x-5h7-----------------|
B|------------------------------------------------------------------------------|
G|------------------------------------------------------------------------------|
D|------------------------------------------------------------------------------|
A|------------------------------------------------------------------------------|
E|------------------------------------------------------------------------------|

Intro Part 2
Guitar1 
e|-----x-x-x-7-5-x-x-x-x-x-x-x-5h7--x-x-x-7-5-x-x-x-x-x-x-x-5h7-----------------|
B|------------------------------------------------------------------------------|
G|------------------------------------------------------------------------------|
D|------------------------------------------------------------------------------| x4
A|------------------------------------------------------------------------------|
E|------------------------------------------------------------------------------|

Guitar2
e|------------------------------------------------------------------------------|
B|------------------------------------------------------------------------------|
G|-------------12--11--7--------------------------------------------------------| x4
D|--------------9---9--5--------------------------------------------------------|
A|------7-7-7-------------------------------------------------------------------|
D|------------------------------------------------------------------------------|

Verse 
Guitar1
e|------------------------------------------------------------------------------|
B|------3---3---------3---3--------3---3---------3---3--------------------------|
G|----4-------------4------------4-------------4--------------------------------| x4
D|--5---------5---5--------5---4---------4---4---------4------------------------|
A|------------------------------------------------------------------------------|
E|------------------------------------------------------------------------------|

Verse Part2.
Guitar1
e|------------------------------------------------------------------------------|
B|------3---3---------3---3--------3---3---------3---3--------------------------|
G|----4-------------4------------4-------------4--------------------------------| 
D|--5---------5---5--------5---4---------4---4---------4------------------------| x3
A|------------------------------------------------------------------------------|
E|------------------------------------------------------------------------------|

Guitar2 
e|------------------------------------------------------------------------------|
B|------------------------------------------------------------------------------|
G|--5--------------------------7------------------------------------------------| x3
D|--5--------5-----------------7------------------------------------------------|
A|--3--------5-----------------5------------------------------------------------|
D|-----------5------------------------------------------------------------------|

Pre chorus guitar1
e|------------------------------------------------------------------------------|
B|------------------------------------------------------------------------------|
G|------------------------------------------------------------------------------|
D|-5-5-5-5-5-5-5-5-5-5-5-5-5-5-5-5---5-5-5-5-5-5-5-5-5-5-5-5-5-5-5-5------------|
A|-3-3-3-3-3-3-3-3-3-3-3-3-3-3-3-3---3-3-3-3-3-3-3-3-3-3-3-3-3-3-3-3------------|
E|------------------------------------------------------------------------------|
PM *****************************************************************

Chorus
Guitar1
e|------------------------------------------------------------------------------|
B|------------------------------------------------------------------------------|
G|-7-7-7-7-7-7-7-7---4-4-4-4-4-4-4-4---5-5-5-5-5-5-5-5-5-5-5-5-5-5-5-5----------|
D|-7-7-7-7-7-7-7-7---4-4-4-4-4-4-4-4---5-5-5-5-5-5-5-5-5-5-5-5-5-5-5-5----------| x4
A|-5-5-5-5-5-5-5-5---2-2-2-2-2-2-2-2---3-3-3-3-3-3-3-3-3-3-3-3-3-3-3-3----------|
E|------------------------------------------------------------------------------|

Guitar2
e|-----------5---5-------------5---5-------------5---5-----------5---5----------|
B|-----------3---3-------------3---3-------------3---3-----------3---3----------|
G|------------------------------------------------------------------------------|
D|------------------------------------------------------------------------------| x4
A|------------------------------------------------------------------------------|
D|------------------------------------------------------------------------------|





 Repeat: Intro Part 2 x2 only (guitar1 and guitar2 riffs)
Verse x2 only
Verse part2. x2 only (guitar1 and guitar2 riffs)
Pre chorus
Chorus x4 (guitar1 and guitar2 riffs)
Intro Part 2 x2 only (guitar1 and guitar2 riffs)
[ Tab from: http://www.guitartabs.cc/tabs/l/lostprophets/last_summer_tab_ver_6.html ]
Guitar1 Solo 
e|-----------------------------15-14-----------------------------------15-14----|
B|-15-15-15-15-15-15------------------15----15-15-15-15-15-15----------------15-|
G|--------------------14-12-12---------------------------------14-12-12---------|
D|------------------------------------------------------------------------------|
A|------------------------------------------------------------------------------|
E|------------------------------------------------------------------------------|

e|-----------------------------15-14-----15-14------15-14------17-14----19-14---|
B|-15-15-15-15-15-15-----------------15--------15---------15--------15-------15-|
G|--------------------14-12-12--------------------------------------------------|
D|------------------------------------------------------------------------------|
A|------------------------------------------------------------------------------|
E|------------------------------------------------------------------------------|

e|-----------------------------15-14-----------------------------------15-14----|
B|-15-15-15-15-15-15------------------15----15-15-15-15-15-15----------------15-|
G|--------------------14-12-12---------------------------------14-12-12---------|
D|------------------------------------------------------------------------------|
A|------------------------------------------------------------------------------|
E|------------------------------------------------------------------------------|

e|------------------------------------------------------------------------------|
B|-14b^16b--14b^16b--14b^16b--14b^16b-------------------------------------------|
G|-------------------------------------14b^16b--14b^16b--14b^16b ---------------|
D|------------------------------------------------------------------------------|
A|------------------------------------------------------------------------------|
E|------------------------------------------------------------------------------|

Outro
Guitar 2 (distortion)
e|------------------------------------------------------------------------------|
B|------------------------------------------------------------------------------|
G|-7-7-7-7-7-7-7-7---4-4-4-4-4-4-4-4---5-5-5-5-5-5-5-5-5-5-5-5-5-5-5-5----------|
D|-7-7-7-7-7-7-7-7---4-4-4-4-4-4-4-4---5-5-5-5-5-5-5-5-5-5-5-5-5-5-5-5----------| x4
A|-5-5-5-5-5-5-5-5---2-2-2-2-2-2-2-2---3-3-3-3-3-3-3-3-3-3-3-3-3-3-3-3----------|
D|------------------------------------------------------------------------------|

Guitar 1 (distortion)
e|-----------------------------15-14-----------------------------------15-14----|
B|-15-15-15-15-15-15------------------15----15-15-15-15-15-15----------------15-|
G|--------------------14-12-12---------------------------------14-12-12---------|
D|------------------------------------------------------------------------------| x4
A|------------------------------------------------------------------------------|
E|------------------------------------------------------------------------------|

Final Guitar 2
e|------------------------------------------------------------------------------|
B|------------------------------------------------------------------------------|
G|-7--6--7~~--------------------------------------------------------------------|
D|-7--6--7~~--------------------------------------------------------------------|
A|-5--4--5~~--------------------------------------------------------------------|
D|------------------------------------------------------------------------------|


Tab Notation

B = bend
h = hammer-on
p = pull off
~ = let ring
x = scratch

When a chord has an * underneath it you palm mute it.
14b^16b = bend 14 up then while the string is still bended up move your finger that is
on 14 to 16 (but don't take your finger off the fret board) then the play the string
then bend the string back down on fret 16. 
if this is too confusing the way I wrote this email me at guitar_rocker_47@hotmail.com

Lyrics

(Verse)

The Friday's sun bears down again
(As we drive with our friends)
And on these long as days we spend
(All our time trying to pretend)
That are stories could be true
(Pretend to be cool)
The setting sunset the day is through
(If only we knew)

(Verse part2)

And we all sit round yeah in our hometown 
Listen to the waves as they all crash down
And the watch the fire as it slowly burns away glowing



(Pre chorus)
Ever sly across the sky  yo

(Chorus)

Here by my side in the summer, our last summer 
The world passes by in the summer, our last summer
The lightly shadows fall surrounded by each other
I'd like to watch it all the view from our last summer

(Intro part2) 

The view from our last summer

(Verse 2)

We trace the sun across the sky
(And we laugh till we cry)
Always so hard to say goodbye
(Goodbye)

(Verse 2 part2)

And we all sit round yeah in our hometown 
Its so good like this, these are times we'll miss
The memories I hope will never fade glowing

(Pre chorus)
(Chorus)
(Intro part2)

(The end bit of solo)
I would stop time to stay with you
I would stop time to so we don't move
I would stop time
I would stop time
I would stop time
To keep you

(Chorus)

Any questions or comments email me at guitar_rocker_47@hotmail.com
Rate this, if you like it, THANKS!
Comments