Lostprophets - Last Summer Chords & Tabs

 

Last Summer Chords & Tabs

Lostprophets Chords & Tabs

Version: 3 Type: Tab 0 ratings
1 star 2 stars 3 stars 4 stars 5 stars
comments

Last Summer Tab

Artist: Lost Prophets
Title: Last Summer
Album: Start Something
Tuning: Dropped D (DADGBe) Low to High
Tabber: a_guy_called_richard@hotmail.com

This is a very simple song but sounds really cool.

I haven't put the amount of times you play each part, it's
simple enough to figure out.



Intro (Lead):
|-0-0-0-7-0-5-0-3-0-0-0-0-3-0-5h7-|
|---------------------------------|
|---------------------------------|
|---------------------------------|
|---------------------------------|
|---------------------------------|
PM. . .   .   . . . . . . . .

Intro (Rhythm): This comes in after the Lead is 
played a few times
|----------------|
|----------------|
|-------12-11-7--|
|-------9--9--5--|
|-7-7-7----------|
|----------------|



Verse (Lead): 
|-----------------------------------------------------------------|
|-----3---3-----------3---3-----------3---3-----------3---3-------|
|---0---------------0---------------0---------------0-------0-----|
|-5---------5---5-5---------5---5-4---------4---4-5-------------5-|
|-----------------------------------------------------------------|
|-----------------------------------------------------------------|

Verse (Rhythm): This is played after a few times of the Lead part
|------------------------|
|------------------------|
|-5--------------7-------|
|-5------5-------7-------|
|-3------5-------5-------|
|--------5---------------|



Pre-Chorus (Both Guitars):
|-----------------------------------------|
|-----------------------------------------|
|-----------------------------------------|
|-5-5-5-5-5-5-5-5-5-5-5-5-5-5-5-5-5-5-5-5-|
|-3-3-3-3-3-3-3-3-3-3-2-2-2-2-2-2-2-2-3-3-|
|-----------------------------------------|
PM. . . . . . . . . . . . . . . . . . . .



Chorus (Lead): Play this throught the chorus, 
listen for the timing
|--------5---5-|
|--------3---3-|
|--------------|
|--------------|
|--------------|
|--------------|

Chorus (Rhythm):
|-----------------------------------------------------------------|
|-----------------------------------------------------------------|
|-7-7-7-7-7-7-7-7-4-4-4-4-4-4-4-4-5-5-5-5-5-5-5-5-5-5-5-5-5-5-5-5-|
|-7-7-7-7-7-7-7-7-4-4-4-4-4-4-4-4-5-5-5-5-5-5-5-5-5-5-5-5-5-5-5-5-|
|-5-5-5-5-5-5-5-5-2-2-2-2-2-2-2-2-3-3-3-3-3-3-3-3-3-3-3-3-3-3-3-3-|
|-----------------------------------------------------------------|


[ Tab from: http://www.guitartabs.cc/tabs/l/lostprophets/last_summer_tab_ver_3.html ]
Then play the Intro for a bit



Then play the Verse for the normal length



Then play the Pre-Chorus



Then play the Chorus



Then play the Intro again



Solo Pt.1 (Lead): At this point its just Lead and bass
|----------------------------15--14----|
|-/15-15-15-15----------------------15-|
|--------------14----------------------| x3
|-----------------17--17-17------------|
|--------------------------------------|
|--------------------------------------|

|-15-14-----15-14-----17-14----19-14----|
|-------15--------15--------15-------15-|
|---------------------------------------|
|---------------------------------------|
|---------------------------------------|
|---------------------------------------|


After the first part of the solo is played, this section
comes next:

Rhythm: This part is played when all of the above solo
has been played once.
Im sure the first chord is right, but not sure about 
the rest.
|-0--------------------------|
|-5--------------------------|
|-4--------5--------4--------|
|-2--------5--------4--------|
|-2--------3--------2--------|
|----------------------------|

Lead:
|----------------------------15--14----|
|-/15-15-15-15----------------------15-|
|--------------14----------------------| x2
|-----------------17--17-17------------|
|--------------------------------------|
|--------------------------------------|

|---------------------------------------------------------------------------|
|-15b17r15--15b17r15--15b17r15--15b17r15------------------------------------|
|-----------------------------------------14b16r14--14b16r14----------------|
|------------------------------------------------------------17-16-17-16----|
|------------------------------------------------------------------------17-|
|---------------------------------------------------------------------------|



After that, the Rhythm plays the chorus untill the end with
this playing over the top:
|----------------------------15--14----|
|-/15-15-15-15----------------------15-|
|--------------14----------------------|
|-----------------17--17-17------------|
|--------------------------------------|
|--------------------------------------|
Repeat this untill the end.



End on:
|-----|
|-----|
|-7---|
|-7---|
|-5---|
|-----|


And then your finished.

Yet another awsome tab from The Legend
Comments