Lostprophets - Last Summer Chords & Tabs

 

Last Summer Chords & Tabs

Lostprophets Chords & Tabs

Version: 1 Type: Tab 0 ratings
1 star 2 stars 3 stars 4 stars 5 stars
comments

Last Summer Tab

-----------------
Last Summer intro
-----------------
Band: Lostprophets	
Album: Start something

Tabber: Rozzer

Standard tuning
x=palm muted note

I'll tab the rest of this when I get the chance, here's the intro...
[ Tab from: http://www.guitartabs.cc/tabs/l/lostprophets/last_summer_tab.html ]
Gtr1
e|---------------------------| 
B|------12-10-8----8-10/12--| 
G|--------------999-99-------| 
D|---------------------------|
A|---------------------------|
E|---------------------------|
                xxxxxx

e|---------------------------| 
B|------12-10-8----8-10/12--| 
G|--999---------999-99-------| 
D|---------------------------|
A|---------------------------|
E|---------------------------|(repeat as needed)
    xxx         xxxxxx


Gtr2
e|----------------| 
B|----------------| 
G|--999-12-11--7--| 
D|--999--9--9--5--|
A|--777-----------|
D|----------------|(played periodically)
Comments