Lostprophets - Kobrakai Chords & Tabs

 

Kobrakai Chords & Tabs

Lostprophets Chords & Tabs

Version: 2 Type: Tab 0 ratings
1 star 2 stars 3 stars 4 stars 5 stars
comments

Kobrakai Tab

Drop D tuning sounds best but i guess you could use standard tuning

This is the first bit of the intro i dont have my guitar with me but im pretty sure its right

------19----19---19----19--20-----19---19---19---19--20-----
---------17---17----17---------------17---17---17-----------
------------------------------------------------------------
------------------------------------------------------------
------------------------------------------------------------
------------------------------------------------------------

-----17---17---17---17--19----17---17---17---17--19---------
--------15---15---15-------------15---15---15---------------
------------------------------------------------------------
------------------------------------------------------------
------------------------------------------------------------
------------------------------------------------------------

Repeat all of this x1
[ Tab from: http://www.guitartabs.cc/tabs/l/lostprophets/kobrakai_tab_ver_2.html ]
------------------------------------------------------------
------------------------------------------------------------
------------------------------------------------------------
---2---2-2-3----2---2-2-3----2---2-2-3----2---0-2-----------
---2---2-2-3----2---2-2-3----2---2-2-3----2---0-2-----------
---2---2-2-3----2---2-2-3----2---2-2-3----2---0-2-----------

Repeat once

------------------------------------------------------------
------------------------------------------------------------
------------------------------------------------------------
----0-2-0-2-0-2-0-2-333------------0-2-0-2-0-2-0-2-333------
----0-2-0-2-0-2-0-2-333------------0-2-0-2-0-2-0-2-333------
----0-2-0-2-0-2-0-2-333------------0-2-0-2-0-2-0-2-333------

The chorus is a mix of all that but i havnt got the verse yet cos like i said i dont hav 
my guitar with me but ill post it up here as soon as i figure it out which will be soon...
Comments