Lostprophets - Hello Again Chords & Tabs

 

Hello Again Chords & Tabs

Lostprophets Chords & Tabs

Version: 1 Type: Bass Tab 0 ratings
1 star 2 stars 3 stars 4 stars 5 stars
comments

Hello Again Bass Tab

   
Band- Lostprophets
Song- Hello Again

Gtr I (D A D G) - 'Stu Richardson'

 Intro (End of I Don't Know)
  Moderately Slow Rock Q=80
 4/4
  Gtr I
  Wx8           Wx4
|------------||--------||
|------------||--------||
|------------||--------||
|------------||--------||


 Verse
  S S S S S S S S S S S S S S S S   S S S S S S S S S S S S S S S S
|---------------------------------|---------------------------------|
|---------------------------------|---------------------------------|
|---------------------------------|---------------------------------|
|-9-9-9-9-9-9-9-9s2-2-2-2-2-2-2-2-|-4-4-4-4-4-4-4-4-0-0-0-0-0-0-0-0-|


  S S S S S S S S S S S S S S S S   S S S S S S S S S S S S S S S S
|---------------------------------|---------------------------------|
|---------------------------------|---------------------------------|
|---------------------------------|---------------------------------|
|-9-9-9-9-9-9-9-9s2-2-2-2-2-2-2-2-|-4-4-4-4-4-4-4-4-7-7-7-7-7-7-7-7-|


    $
    S S S S S S S S S S S S S S S S   S S S S S S S S S S S S S S S S
||----------------------------------|---------------------------------|
||o---------------------------------|---------------------------------|
||o---------------------------------|---------------------------------|
||--9-9-9-9-9-9-9-9s2-2-2-2-2-2-2-2-|-4-4-4-4-4-4-4-4-0-0-0-0-0-0-0-0-|


  S S S S S S S S S S S S S S S S   S S S S S S S S S S S S S S S S
|---------------------------------|----------------------------------||
|---------------------------------|---------------------------------o||
|---------------------------------|---------------------------------o||
|-9-9-9-9-9-9-9-9s2-2-2-2-2-2-2-2-|-4-4-4-4-4-4-4-4-7-7-7-7-7-7-7-7--||


 Pre-Chorus
  S S S S S S S S S S S S S S S S
|---------------------------------|
|---------------------------------|
|---------------------------------|
|-5-5-5-5-5-5-5-5-5-5-5-5-5-5-5-5-|


  S S S S S S S S S S S S S S S S   S S S S S S S S S S S S S S S S
|---------------------------------|---------------------------------|
|---------------------------------|---------------------------------|
|---------------------------------|---------------------------------|
|-7-7-7-7-7-7-7-7-7-7-7-7-7-7-7-7S|=5-5-5-5-5-5-5-5-5-5-5-5-5-5-5-5-|


                           To Coda
  S S S S S S S S S S S S S S S S    H.      +E. S   e E Q  H
|---------------------------------||---------------|-------------||
|---------------------------------||---------------|-------------||
|---------------------------------||---------------|-------------||
|-5-5-5-5-5-5-5-5-5-5-5-5-5-5-5-5-||-9-------(9)-9-|-9-----------||


 Chorus
  &
  E S S S S E E S S S S E    E S S S S E E S S S S E
|--------------------------|-------------------------|
|--------------------------|-------------------------|
|--------------------------|-------------------------|
|-9-9-9-9-9-9-9-9-9-9-9-9\-|-0-0-0-0-0-0-0-0-0-0-0-0-|


  E S S S S E E S S S S E   E S S S S E E S S S S E
|-------------------------|-------------------------|
|-------------------------|-------------------------|
|-------------------------|-------------------------|
|-5-5-5-5-5-5-5-5-5-5-5-5-|-5-5-5-5-5-5-5-5-5-5-5-5-|


  E S S S S E E S S S S  S  S    E  S  S  S  S  E  E  S  S  S  S  S  S
|-----------------------------|-----------------------------------------|
|-----------------------------|-----------------------------------------|
|-----------------------------|-----------------------------------------|
|-9-9-9-9-9-9-9-9-9-9-9S11-11-|-12-12-12-12-12-12-12-12-12-12-12-12-12S=|


                                        D.S. al Coda
  E S S S S E E S S S S S S   E S S S S E E S S S S E
|---------------------------|-------------------------||
|---------------------------|-------------------------||
|---------------------------|-------------------------||
|-5-5-5-5-5-5-5-5-5-5-5-5-5S|=7-7-7-7-7-7-7-7-7-7-7-7-||


 Interlude
  S S S S S S S S  S S S S S S S S   S S S S S S S S S S S S S S S S
|----------------------------------|---------------------------------|
|----------------------------------|---------------------------------|
|----------------------------------|---------------------------------|
|-5-5-5-5-5-5-5-5s12S5-5-5-5-5-5-5-|-7-7-7-7-7-7-7-7-7-7-7-7-7-7-7-7-|


  S S S S S S S S  S S S S S S S S   S S S S S S S S  S  S  S  S  S  S  S  S
|----------------------------------|-----------------------------------------||
|----------------------------------|-----------------------------------------||
|----------------------------------|-----------------------------------------||
|-5-5-5-5-5-5-5-5s12S5-5-5-5-5-5-5-|-7-7-7-7-7-7-7-7-12-12-12-12-12-12-12-12-||


 Bridge
  S S S S S S S S S S S S S S S S   S S S S S S S S S S S S S S S S
|---------------------------------|---------------------------------|
|---------------------------------|---------------------------------|
|---------------------------------|---------------------------------|
|-9-9-9-9-9-9-9-9-2-2-2-2-2-2-2-2-|-4-4-4-4-4-4-4-4-0-0-0-0-0-0-0-0-|

[ Tab from: http://www.guitartabs.cc/tabs/l/lostprophets/hello_again_btab.html ]
  S S S S S S S S S S S S S S S S   S S S S S S S S S S S S S S S S
|---------------------------------|---------------------------------|
|---------------------------------|---------------------------------|
|---------------------------------|---------------------------------|
|-9-9-9-9-9-9-9-9-2-2-2-2-2-2-2-2-|-4-4-4-4-4-4-4-4-7-7-7-7-7-7-7-7-|


  S S S S S S S S S S S S S S S S   S S S S S S S S S S S S S S S S   W
|---------------------------------|---------------------------------|------||
|---------------------------------|---------------------------------|------||
|---------------------------------|---------------------------------|------||
|-9-9-9-9-9-9-9-9-2-2-2-2-2-2-2-2-|-5-5-5-5-5-5-5-5-5-5-5-5-5-5-5-5-|------||


 Chorus
   E  S  S  S  S  E  E  S  S  S  S  E   E S S S S S S  S  S  S  S  S  S  S  S
|-------------------------------------|---------------------------------------|
|-------------------------------------|---------------------------------------|
|-------------------------------------|---------------------------------------|
|-12-12-12-12-12-12-12-12-12-12-12-12-|-5-5-5-5-5-5-5S11-11-11-11-12-12-12-12S|


  E S S S S S S  S  S  S  S  S  S  S  S
|-----------------------------------------|
|-----------------------------------------|
|-----------------------------------------|
|-5-5-5-5-5-5-5S11-11-11-11-12-12-12-12---|


  E S S S S E E S S S S E    E S S S S E E S S S S E
|--------------------------|-------------------------|
|--------------------------|-------------------------|
|--------------------------|-------------------------|
|-9-9-9-9-9-9-9-9-9-9-9-9\-|-0-0-0-0-0-0-0-0-0-0-0-0-|


  E S S S S S S  S  S  S  S  S  S  S  S
|---------------------------------------|
|---------------------------------------|
|---------------------------------------|
|-5-5-5-5-5-5-5S11-11-11-11-12-12-12-12-|


  E S S S S S S  S  S  S  S  S  S  S  S
|---------------------------------------|
|---------------------------------------|
|---------------------------------------|
|-7-7-7-7-7-7-7S11-11-11-11-12-12-12-12-|


  E S S S S E E S S S S E    E S S S S E E S S S S E
|--------------------------|-------------------------|
|--------------------------|-------------------------|
|--------------------------|-------------------------|
|-9-9-9-9-9-9-9-9-9-9-9-9\-|-0-0-0-0-0-0-0-0-0-0-0-0-|


  E S S S S E E S S S S S S   E S S S S E E S S S S E
|---------------------------|-------------------------|
|---------------------------|-------------------------|
|---------------------------|-------------------------|
|-5-5-5-5-5-5-5-5-5-5-5-5-5S|=7-7-7-7-7-7-7-7-7-7-7-7-|


 Outro
  H.      +E. S   E E H    E. S   E E H    E. S   E Q  S S E s s s s E
|---------------|---------------|---------------|----------------------|
|---------------|---------------|---------------|----------------------|
|---------------|---------------|---------------|----------------7-7-7-|
|-9-------(9)-9-|-9-----------9-|-9-----------9-|-9------9-9-9-9-------|


  e E H    E. S   e Q  S S e S S e S S   e E H    E. S   e Q  S S e s s s s E
|---------------|----------------------|---------------|----------------------|
|---------------|----------------------|---------------|----------------------|
|---------------|----------------------|---------------|----------------7-7-7-|
|-9-----------9-|-9------9-9---9-9---9-|-9-----------9-|-9------9-9-9-9-------|


                        Faster Q=91
              >
  W          +W            Wx16
|----------|------------||---------*|
|----------|------------||---------*|
|----------|------------||---------*|
|-9--------|-(9)--------||---------*|


Duration Legend
---------------
W - whole; H - half; Q - quarter; E - 8th; S - 16th; T - 32nd; X - 64th; a - acciaccatura
+ - note tied to previous; . - note dotted; .. - note double dotted
Uncapitalized letters represent notes that are staccato (1/2 duration)
Irregular groupings are notated above the duration line
Duration letters will always appear directly above the note/fret number it represents the
duration for.  Duration letters with no fret number below them represent rests.  Multi-
bar rests are notated in the form Wxn, where n is the number of bars to rest for.  Low
melody durations appear below the staff

Tablature Legend
----------------
 h   - hammer-on
 p   - pull-off
 b   - bend
 pb  - pre-bend
 r   - bend release (if no number after the r, then release immediately)
 /\  - slide into or out of (from/to "nowhere")
 s   - legato slide
 S   - shift slide
  - natural harmonic
[n]  - artificial harmonic
n(n) - tapped harmonic
 ~   - vibrato
 tr  - trill
 T   - tap
 TP  - trem. picking
 PM  - palm muting
\n/  - tremolo bar dip; n = amount to dip
 \n  - tremolo bar down
 n/  - tremolo bar up
/n\  - tremolo bar inverted dip
 =   - hold bend; also acts as connecting device for hammers/pulls
 <>  - volume swell (louder/softer)
 x   - on rhythm slash represents muted slash
 o   - on rhythm slash represents single note slash

Misc Legend
-----------
 |  - bar
||  - double bar
||o - repeat start
o|| - repeat end
*|  - double bar (ending)
 :  - bar (freetime)
 $  - Segno
 &  - Coda
Tempo markers -  = BPM(8/16=s8/s16), where s8 = swing 8ths, s16 = swing 16ths


***************************************************************************************
* Generated using Power Tab Editor by Brad Larsen - http://powertab.guitarnetwork.org *
***************************************************************************************
Comments