Lostprophets - Gothic Chords & Tabs

 

Gothic Chords & Tabs

Lostprophets Chords & Tabs

Version: 1 Type: Bass Tab 0 ratings
1 star 2 stars 3 stars 4 stars 5 stars
comments

Gothic Bass Tab

   
Band      : Lost Prophets
Song      : Gothic
Album     : Start Something
Tabbed by : Mistique
Tuning    : (low-to-high) D A D G

vvv = Let Ring

:: Song Layout ::
- Verse 1               - 3x [0:12]
- Pre-Chorus [Version1] - 1x [0:49]
- Chorus                - 1x [1:07]
--
- Verse 1               - 2x [1:30]
- Pre-Chorus [Version2] - 1x [1:55]
- Chorus                - 1x [2:07]
--
- Interlude		- 2x [2:31]
- Verse 1               - 1x [2:44]
- Verse 2               - 1x [2:54]
- Chorus Verse 2        - 1x [3:04]
- Chorus                - 1x [3:12]
--
- Outro			- 1x [3:37]

:: Verse 1 ::
G|------------------------------------------------------------------|
D|------------------------------------------------------------------|
A|-2-2-2-2-2-2-2-2--------------------------------------------------| 
D|-----------------2-2-2-2-2-2-2-2-4-4-4-4-4-4-4-4-0-0-0-0-0-0-0-0--|

G|------------------------------------------------------------------|
D|------------------------------------------------------------------|
A|-2-2-2-2-2-2-2-2--------------------------------------------------| 
D|-----------------2-2-2-2-2-2-2-2-4-4-4-4-4-4-4-4-7-7-7-7-7-7-7-7--|

:: Verse 2 ::
G|------------------------------------------------------------------|
D|------------------------------------------------------------------|
A|-2-2-2-2-2-2-2-2--------------------------------------------------| 
D|-----------------2-2-2-2-2-2-2-2-5-5-5-5-5-5-5-5-5-5-5-5-5-5-5-5--|
[ Tab from: http://www.guitartabs.cc/tabs/l/lostprophets/gothic_btab.html ]
:: Pre-Chorus [Version1]::
G|--------------------------------------------|
D|--------------------------------------------|
A|--------------------------------------------|
D|-5(16x)-7(11x)-9-9-9-5(16x)--9vvvvvvv--9-9--|

:: Pre-Chorus [Version2]::
G|--------------------------------------|
D|--------------------------------------|
A|--------------------------------------|
D|-5(16x)-7(16x)-5(16x)--9vvvvvvv--9-9--|

:: Chorus ::
G|-----------------------|
D|-----------------------|
A|--------5(16x)---------|
D|-9(16x)--------5(32x)--|

G|------------------------------|
D|------------------------------|
A|--------5(16x)----------------|
D|-9(16x)--------5(16x)-7(16x)--|

:: Chorus Verse 2 ::
G|-----------------|
D|-----------------|
A|--5(16x)---------|
D|---------5(32x)--|

:: Interlude ::
G|------------------------------------------------------------------|
D|------------------------------------------------------------------|
A|-----------------5-5----------------------------------------------|
D|-5-5-5-5-5-5-5-5-----5-5-5-5-5-5-7-7-7-7-7-7-7-7-7-7-7-7-7-7-7-7--|

:: Outro ::
G|-------------------------------------------------------|
D|-------------------------------------------------------|
A|-----------------------------------------------8-8-----|
D|-9vvvvvvvv---9-9-------9-9-------9-9---9-9-9-9-----9-9-|

G|------------------------------------------------------------|
D|------------------------------------------------------------|
A|---------------------------------------------8-8------------|
D|-9-9-------9-9--9-9--9-9-------9-9---9-9-9-9-----9vvvvvvvv--|
Comments