Lostprophets - Goodbye Tonight Chords & Tabs

 

Goodbye Tonight Chords & Tabs

Lostprophets Chords & Tabs

Version: 2 Type: Tab 0 ratings
1 star 2 stars 3 stars 4 stars 5 stars
comments

Goodbye Tonight Tab

Lostprophets - Goodbye Tonight
Tabber: Will Sharp
Tuning: Drop D (EBGDAD)
Email: chimaira_tool@hotmail.com

Ok, here it the tab for the song, i havent see the video yet to see if there 
are any glipses at teh fret boards but if im wrong in an area i'll correct it.

For guitar 2's parts, the chords sound better as they are than barring the
A and D strings on the same fret as doing that makes them sound too low.

Guitar 1's solo/repeating riffs are pretty much spot on, lee has quite a
messy sound due to phaser/flange an distortion on so some notes are hard to hear.

Any mistakes ill correct when i see the video/live video of them playing.

(. = play then mute immediately after eg. with palm)
(~ = ret ring)

VERSE:
Guitar 1:								       
E|--------------------------------|---------------------------------------|
B|------------7------------7------|-------------7-------------7-----------|
G|----7-----7---7---7--------7----|-----7---------7---7---------7---------|
D|------5-------------5---5---(5)-|-------5---5---------5---5----(5)------|
A|-7------7-------7-----7---------|--7------7-------7-----7---------------|
D|--------------------------------|---------------------------------------|

E|--------------------------------|---------------------------------------|
B|------------7------------7------|-------------7-------------7-----------|
G|----7-----7---7---7--------7----|-----7---------7---7---------7---------|
D|------5-------------5---5---(5)-|-------5---5---------5---5----(5)------|
A|-7------7-------7-----7---------|--7------7-------7-----7---------------|
D|--------------------------------|---------------------------------------|

E|--------------------------------|---------------------------------------|
B|------------7------------7------|-------------7-------------8-----------|
G|----7-----7---7---7--------7----|-----7---------7---7---------7---------|
D|------5-------------5---5---(5)-|-------5---5---------5---5-------------|
A|-7------7-------7-----7---------|--7------7-------7-----7---------------|
D|--------------------------------|---------------------------------------|

E|--------------------------------|---------------------------------------|
B|------------7------------7------|-------------7-------------8~----------|
G|----7-----7---7---7--------7----|-----7---------7---7---------7~--------|
D|------5-------------5---5---(5)-|-------5---5---------5---5-------------|
A|-7------7-------7-----7---------|--7------7-------7-----7---------------|
D|--------------------------------|---------------------------------------|

Guitar 2: Cos it be difficult to harmonise with Guitar 1, Guitar 2 could play
	  the background keyboard parts (transcribed below)

	       x2	      x2   (On 4th repeat hold the last note)    x4
E|--------------|--------------|------------------------------------------|
B|--------------|--------------|------------------------------------------|
G|--------------|----------16--|--------------16--19----------------------|
D|--16--17--12--|--16--17------|--12--16--17------------------------------|
A|--------------|--------------|------------------------------------------|
D|--------------|--------------|------------------------------------------|



PRE-CHORUS:								 x3
E|--0.---0.---0-0.---7.---7.---7-7-7-7.---0.---0.---0--0.---10-10-10-10.--|
B|--8.---8.---8-8.---8.---8.---8-8-8-8.---12.--12.--12-12.--12-12-12-12.--|
G|--9.---9.---9-9.---9.---9.---9-9-9-9.---11.--11.--11-11.--11-11-11-11.--|
D|--9.---9.---9-9.---9.---9.---9-9-9-9.---9.---9.---9--9.---9--9--9--9.---|
A|------------------------------------------------------------------------|
D|------------------------------------------------------------------------|

E|--0.---0.---0-0.---7.---7.---7-7-7-7.---0.--0.--0.--0.--10.-10.-10.-----|
B|--8.---8.---8-8.---8.---8.---8-8-8-8.---12.-12.-12.-12.-12.-12.-12.-----|
G|--9.---9.---9-9.---9.---9.---9-9-9-9.---11.-11.-11.-11.-11.-11.-11.-----|
D|--9.---9.---9-9.---9.---9.---9-9-9-9.---9.--9.--9.--9.--9.--9.--9.------|
A|------------------------------------------------------------------------|
D|------------------------------------------------------------------------|


CHORUS: Both guitars have distortion on.
Guitar 2:								 x2
E|------------------------------------------------------------------------|
B|------------------------------------------------------------------------|
G|-5--5---5-5-5--7--7--7-7-7-7--9--9---9-9-9--12--12--12-12-12-12---------|
D|-5--5---5-5-5--7--7--7-7-7-7--9--9---9-9-9--12--12--12-12-12-12---------|
A|-3--3---3-3-3--5--5--5-5-5-5--7--7---7-7-7--10--10--10-10-10-10---------|
D|-5--5---5-5-5--7--7--7-7-7-7--9--9---9-9-9--12--12--12-12-12-12---------|

Guitar 1: plays something like this					 x2
E|------------------------------------------------------------------------|
B|-10-------8-------10-------7-------10-------8-------10-------8-7--------|
G|----7---7---7---7----7---7---7---7----7---7---7---7----7---7-----7------|
D|------9-------9--------9-------9--------9-------9--------9---------9----|
A|------------------------------------------------------------------------|
D|------------------------------------------------------------------------|

Guitar 2:								 x2
E|------------------------------------------------------------------------|
B|------------------------------------------------------------------------|
G|-5.--5.---5-5-5.--7--7--7-7-7-7--9.--9.---9-9-9---12---12--12-12-12-12--|
D|-5.--5.---5-5-5.--7~-7--7-7-7-7--9.--9.---9-9-9.--12~--12--12-12-12-12--|
A|-3.--3.---3-3-3.--5~-5--5-5-5-5--7.--7.---7-7-7.--10~--10--10-10-10-10--|
D|-5.--5.---5-5-5.--7~-7--7-7-7-7--9.--9.---9-9-9.--12~--12--12-12-12-12--|

Guitar 1: (not exact but sounds pretty much right)
E|---------------------------------------------10--10--10---15--14--------|
B|-7-8-7-8-7-8-7--(7)--10-7--7-8-7-8-7-8----/12--12--12---12--12--12-15-12|
G|------------------------------------------------------------------------|
D|------------------------------------------------------------------------|
A|------------------------------------------------------------------------|
D|------------------------------------------------------------------------|

E|---------------------------------------------10--10--10---15--14--------|
B|-7-8-7-8-7-8-7--(7)--10-7--7-8-7-8-7-8----/12--12--12---12--12--12-15-12|
G|------------------------------------------------------------------------|
D|------------------------------------------------------------------------|
A|------------------------------------------------------------------------|
D|------------------------------------------------------------------------|

[ Tab from: http://www.guitartabs.cc/tabs/l/lostprophets/goodbye_tonight_tab_ver_2.html ]
(1st) CHORUS ENDING:
This part is just Guitar 1 clean.  
E|----15~----14~-------------15~----14~-----------------------------------|
B|-12-----12-----12--15~--12-----12-----12--15~---------------------------|
G|------------------------------------------------------------------------|
D|------------------------------------------------------------------------|
A|------------------------------------------------------------------------|
D|------------------------------------------------------------------------|

REPEAT VERSE, PRE-CHORUS, CHORUS

BRIDGE:
Guitar 2:
E|------------------------------------------------------------------------|
B|------------------------------------------------------------------------|
G|-12.--12.--12-12.--12.--12.--12-12-12-12---9.--9.--9-9.--9.--9.--9-9-9-9|
D|-12.--12.--12-12.--12.--12.--12-12-12-12---9.--9.--9-9.--9.--9.--9-9-9-9|
A|-10.--10.--10-10.--10.--10.--10-10-10-10---7.--7.--7-7.--7.--7.--7-7-7-7|
D|-12.--12.--12-12.--12.--12.--12-12-12-12---9.--9.--9-9.--9.--9.--9-9-9-9|

E|------------------------------------------------------------------------|
B|------------------------------------------------------------------------|
G|---7.--7.--7-7.--7.--7.--7-7-7-7--------------------5-5-5-5--5-5--------|
D|---7.--7.--7-7.--7.--7.--7-7-7-7------------5-5-5-5-5-5-5-5--5-5--------|
A|---5.--5.--5-5.--5.--5.--5-5-5-5----3-3-3-3-3-3-3-3-3-3-3-3--3-3--------|
D|---7.--7.--7-7.--7.--7.--7-7-7-7----5-5-5-5-5-5-5-5-5-5-5-5--5-5--------|

Guitar 1: with Phaser and distortion on. 
	 (these sound pretty gd, if the 1st chord is a bit iffy, then mute
	  the G string)
E|---15~~~------12~~~------10~~~------------------------------------------|
B|---17~--------12~--------12~--------------------------------------------|
G|---16~---------9~--------11~--------------------------------------------|
D|---14~---------9~---------9~--------------------------------------------|
A|------------------------------------------------------------------------|
D|------------------------------------------------------------------------|

Keyboard Overlay: (for Guitar) The push-offs gradually change to hammer-ons. 
E|------------------------------------------------------------------------|
B|------------------------------------------------------------------------|
G|--12p11----12p11---12p11---12p11---12p11---11h12---11h12---11h12---11h12|
D|-12-------12------12------12------12------12------12------12------12----|
A|------------------------------------------------------------------------|
D|------------------------------------------------------------------------|


CHORUS:
Guitar 2:								 x4
E|------------------------------------------------------------------------|
B|------------------------------------------------------------------------|
G|-5--5---5-5-5--7--7--7-7-7-7--9--9---9-9-9--12--12--12-12-12-12---------|
D|-5--5---5-5-5--7--7--7-7-7-7--9--9---9-9-9--12--12--12-12-12-12---------|
A|-3--3---3-3-3--5--5--5-5-5-5--7--7---7-7-7--10--10--10-10-10-10---------|
D|-5--5---5-5-5--7--7--7-7-7-7--9--9---9-9-9--12--12--12-12-12-12---------|

Guitar 1: plays something like this					 x4
E|------------------------------------------------------------------------|
B|-10-------8-------10-------7-------10-------8-------10-------8-7--------|
G|----7---7---7---7----7---7---7---7----7---7---7---7----7---7-----7------|
D|------9-------9--------9-------9--------9-------9--------9---------9----|
A|------------------------------------------------------------------------|
D|------------------------------------------------------------------------|

Guitar 2:								 x2
E|------------------------------------------------------------------------|
B|------------------------------------------------------------------------|
G|-5.--5.---5-5-5.--7--7--7-7-7-7--9.--9.---9-9-9---12---12--12-12-12-12--|
D|-5.--5.---5-5-5.--7~-7--7-7-7-7--9.--9.---9-9-9.--12~--12--12-12-12-12--|
A|-3.--3.---3-3-3.--5~-5--5-5-5-5--7.--7.---7-7-7.--10~--10--10-10-10-10--|
D|-5.--5.---5-5-5.--7~-7--7-7-7-7--9.--9.---9-9-9.--12~--12--12-12-12-12--|

Guitar 1: (not exact but sounds pretty much right)
E|---------------------------------------------10--10--10---15--14--------|
B|-7-8-7-8-7-8-7--(7)--10-7--7-8-7-8-7-8----/12--12--12---12--12--12-15-12|
G|------------------------------------------------------------------------|
D|------------------------------------------------------------------------|
A|------------------------------------------------------------------------|
D|------------------------------------------------------------------------|

E|---------------------------------------------10--10--10---15--14--------|
B|-7-8-7-8-7-8-7--(7)--10-7--7-8-7-8-7-8----/12--12--12---12--12--12-15-12|
G|------------------------------------------------------------------------|
D|------------------------------------------------------------------------|
A|------------------------------------------------------------------------|
D|------------------------------------------------------------------------|

ENDING:
Guitar 1: Distortion and a Uni-vibe/phaser effect on.

E|---15----15----15----15----15----12---12---12---12---12---12---10--10---|
B|-----12----12----12----12----12----12---12---12---12---12---12---7---7--|
G|-12----12----12----12----12----12----9----9----9----9----9----9---9---9-|
D|------------------------------------------------------------------------|
A|------------------------------------------------------------------------|
D|------------------------------------------------------------------------|

E|-10--10--10--10--12--12--12--12--12--12--14~----------------------------|
B|---7---7---7---7---8---8---8---8---8---8--------------------------------|
G|----9---9---9---9---9---9---9---9---9---9-------------------------------|
D|------------------------------------------------------------------------|
A|------------------------------------------------------------------------|
D|------------------------------------------------------------------------|

Guitar 2:
				   x2
E|----------------------------------|-------------------------------------|
B|----------------------------------|-------------------------------------|
G|-5-5-5.---5-5.--5.--5-5.--5-5-5.--|-5-5-5.--5-5-5-5.--5-5-5.--5-5.------|
D|-5-5-5.---5-5.--5.--5-5.--5-5-5.--|-5-5-5.--5-5-5-5.--5-5-5.--5-5.------|
A|-3-3-3.---3-3.--3.--3-3.--3-3-3.--|-3-3-3.--3-3-3-3.--3-3-3.--3-3.------|
D|-5-5-5.---5-5.--5.--5-5.--5-5-5.--|-5-5-5.--5-5-5-5.--5-5-5.--5-5.------|

E|------------------------------------------------------------------------|
B|------------------------------------------------------------------------|
G|-5-5-5.---5-5.--5.--5-5.--5-5-5.---7~-----------------------------------|
D|-5-5-5.---5-5.--5.--5-5.--5-5-5.---7~-----------------------------------|
A|-3-3-3.---3-3.--3.--3-3.--3-3-3.---5~-----------------------------------|
D|-5-5-5.---5-5.--5.--5-5.--5-5-5.---7~-----------------------------------|

Thats it, questions, comments etc. email me.
Comments