Lostprophets - Goodbye Tonight Chords & Tabs

 

Goodbye Tonight Chords & Tabs

Lostprophets Chords & Tabs

Version: 1 Type: Bass Tab 0 ratings
1 star 2 stars 3 stars 4 stars 5 stars
comments

Goodbye Tonight Bass Tab

   
----------------------------------------------------------------------------
			     Goodbye Tonight - Lostprophets
----------------------------------------------------------------------------

Tabbed By : Earth_Rave
e-mail: earth_rave@myway.com

Tuning:EADG

Verse
G|--------------------------------------------|
D|--------------------------------------------|
A|----3-------3--------------3--------------3-|
E|0-------0-------000-0-00-------000-0-00-----|

Pre-chorus
G|-----------------------------------------------------------------|
D|----------------2-2-22-4-4-45542----------------2-2-22-4-4-45545-|
A|3-3-33-5-5-55555----------------3-3-33-5-5-55555-----------------|
E|-----------------------------------------------------------------|

G|----------------------------------------------------------------|
D|----------------2-2-22-4-4-45542----------------2-2-2-2-4-4-4-4-|
A|3-3-33-5-5-55555----------------3-3-33-5-5-55555----------------|
E|----------------------------------------------------------------|

Chorus
G|--------------------------------------|
D|--------------------------------------|
A|333-33-5-555-555----------------------|
E|-------5-555-555-000-00-3-333-333-----|2x

G|-------------------------------------|
D|----------------2-2-22-5-555-555-----|
A|3-3-33-5-555-555---------------------|
E|-------------------------------------|2x

Post-chorus
G|-------------------------------|
D|-------------------------------|
A|3-3-30-3-3-330-3-3-30-3-3-330--|
E|------3-------3------3-------3-|

Verse
G|--------------------------------------------|
D|--------------------------------------------|
A|----3-------3--------------3--------------3-|
E|0-------0-------000-0-00-------000-0-00-----|
[ Tab from: http://www.guitartabs.cc/tabs/l/lostprophets/goodbye_tonight_btab.html ]
Pre-chorus
G|-----------------------------------------------------------------|
D|----------------2-2-22-4-4-45542----------------2-2-22-4-4-45545-|
A|3-3-33-5-5-55555----------------3-3-33-5-5-55555-----------------|
E|-----------------------------------------------------------------|

G|----------------------------------------------------------------|
D|----------------2-2-22-4-4-45542----------------2-2-2-2-4-4-4-4-|
A|3-3-33-5-5-55555----------------3-3-33-5-5-55555----------------|
E|----------------------------------------------------------------|

Chorus
G|--------------------------------------|
D|--------------------------------------|
A|333-33-5-555-555----------------------|
E|-------5-555-555-000-00-3-333-333-----|2x

G|-------------------------------------|
D|----------------2-2-22-5-555-555-----|
A|3-3-33-5-555-555---------------------|
E|-------------------------------------|2x

Bridge
G|--------------------------------------------------------------|
D|--------------------------------------------------------------|
A|3-3-30-3-3-330-3-3-30-3-3-330-3-3-30-3-3-330-3333333333333333-|
E|------3-------3------3-------3------3-------3-----------------|

Chorus
G|--------------------------------------|
D|--------------------------------------|
A|333-33-5-555-555----------------------|
E|-------5-555-555-000-00-3-333-333-----|4x

G|-------------------------------------|
D|----------------2-2-22-5-555-555-----|
A|3-3-33-5-555-555---------------------|
E|-------------------------------------|2x

Outro
G|-|                                      |G|-|
D|-|                                      |D|-|
A|3|                                      |A|5|
E|-|  just play this rhythmically. End on |E|-|
Comments