Lostprophets - Five Is A Four Letter Word Chords & Tabs

 

Five Is A Four Letter Word Chords & Tabs

Lostprophets Chords & Tabs

Version: 3 Type: Tab 0 ratings
1 star 2 stars 3 stars 4 stars 5 stars
comments

Five Is A Four Letter Word Tab

   
Lost Prophets - Five is a Four Letter Word
Tabbed By: Haley Tinny
E-mail: drmmrsgirl@aol.com

Intro
D|----------------------
A|----------------------
F|----------------------   Repeat a lot of times
C|-5--------------------
G|-3--0-0-0--0-0-0-0-0--
C|----------------------


After the singer goes "Yeah" play the intro again, 
but on the fourth time add this to the end.
Then go back and play the intro, but with a different rhythm.
Listen to the song to see what I mean.

D|----------------------
A|----------------------
F|----------------------
C|-5-666-7-6-7----------
G|-3-444-5-4-5----------
C|----------------------
[ Tab from: http://www.guitartabs.cc/tabs/l/lostprophets/five_is_a_four_letter_word_tab_ver_3.html ]
Verse
D|-555555555-55555555555--------------------
A|-----------------------555555555-555555555
F|------------------------------------------  
C|------------------------------------------
G|------------------------------------------
C|------------------------------------------

This part also comes up in the verse.
D|-15-15-15-15-15-15-15-15------------------------------
A|-------------------------15-15-15-15-15-15-15-15-15-15
F|------------------------------------------------------
C|------------------------------------------------------
G|------------------------------------------------------
C|------------------------------------------------------

Play the intro again. Then play this.
D|---------------------
A|---------------------
F|---------------------
C|---------------------
G|-5---7---2---0-------
C|-5---7---2---0-------

Then play this.
D|---------------------
A|---------------------
F|---------------------
C|-5555-3333-2222-3333-
G|-3333-1111-0000-1111-
C|---------------------

Outro
D|---------------------
A|---------------------
F|---------------------  
C|---------------------  
G|-10--0-0-0-0----------
C|-10--0-0-0-0----------
Comments