Lostprophets - Five Is A Four Letter Word Chords & Tabs

 

Five Is A Four Letter Word Chords & Tabs

Lostprophets Chords & Tabs

Version: 1 Type: Bass Tab 0 ratings
1 star 2 stars 3 stars 4 stars 5 stars
comments

Five Is A Four Letter Word Bass Tab

Band- Lostprophets
Song- Five Is A Four Letter Word

Intro/Pre-Chorus                                         x2
G--10\-3p0-0000000-3p00000000-3p00000000-3p00000000-0-3h5p3--|
D------------------------------------------------------------|
A------------------------------------------------------------|
E------------------------------------------------------------|
[ Tab from: http://www.guitartabs.cc/tabs/l/lostprophets/five_is_a_four_letter_word_btab.html ]
Verse
G----------------------0-0-0-0-0--0-0-0-0-0-|
D--1-1-1-1-1--1-1-1-1-1---------------------|
A-------------------------------------------|
E-------------------------------------------|

Chorus
G---------------------------------|
D--3-5-0--3-5-0-------------------|
A-------3------3--1---------------|
E-------------------4-3-4-1-4-3-4-|

Bridge
G-----------3--3--3--3---------|
D----guitar--------------------|
A---no bass--------------------|
E------------------------------|

Outro
G-------------------|
D--8\5-5-5-5-5------|
A-------------------|
E-------------------|

bass finishes on
G------------------|
D------------------|
A--6---------------|
E------------------|
Comments