Lostprophets - Burn Burn Chords & Tabs

 

Burn Burn Chords & Tabs

Lostprophets Chords & Tabs

Version: 7 Type: Tab 0 ratings
1 star 2 stars 3 stars 4 stars 5 stars
comments

Burn Burn Tab

Artist: Lost Prophets
Song: Burn Burn
Album: Start Something
Tabber: HALEY

Ok so this is a pretty easy song so i hope i did it ok!


Intro (clean)

e|---------------------------------|
b|---------------------------------|
g|---------------------------------|
D|-7-7--3-3-10-0-0-10--0-10-12-----|
A|-7-7--3-3-10-0-0-10--0-10-12-----|
D|-7-7--3-3-10-0-0-10--0-10-12-----|

e|---------------------------------|
b|---------------------------------|
g|-----------------7*--7*-7*-7*----|
D|-7-7--3-3-10-0-0-7*--7*-7*-7*----|
A|-7-7--3-3-10-0-0-7*--7*-7*-7*----|
D|-7-7--3-3-10-0-0-7*--7*-7*-7*----|


Intro 2/chorus (dist.)


e|---------------------------------|
b|---------------------------------|
g|---------------------------------|
D|-7-7--3-3-10-0-0-10--0-10-12-----|
A|-7-7--3-3-10-0-0-10--0-10-12-----|
D|-7-7--3-3-10-0-0-10--0-10-12-----|

e|---------------------------------|
b|---------------------------------|
g|-----------------x--x-x-x--------| or use the
D|-7-7--3-3-10-0-0-x--x-x-x--------| harmonics
A|-7-7--3-3-10-0-0-x--x-x-x--------|
D|-7-7--3-3-10-0-0-x--x-x-x--------|


Verse

Guitar 1

e|---------------------------|
b|---------------------------|
g|---------------------------|
D|-7-7--3-3-10-0-0-----------|
A|-7-7--3-3-10-0-0-----------|
D|-7-7--3-3-10-0-0-----------|


e|---------------------------------|
b|---------------------------------|
g|---------------------------------|
D|-7-7--3-3-10-0-0-10--0-10-12-----|
A|-7-7--3-3-10-0-0-10--0-10-12-----|
D|-7-7--3-3-10-0-0-10--0-10-12-----|


Guitar 2 (verse 1)
[ Tab from: http://www.guitartabs.cc/tabs/l/lostprophets/burn_burn_tab_ver_7.html ]
e|---------------------------|
b|---------------------------|
g|-14-14-xx-14-14-xx---------|
D|-x--x--xx-x--x--xx---------|
A|-12-12-xx-12-12-xx---------|
D|---------------------------|

Guitar 2 (verse 2)

e|------------------------------------------------|
b|----14---14----14---14-----12---12----14---14---|
g|-------0----------0-----------0----------0------|
D|-12---------12---------12----------12-----------|
A|------------------------------------------------|
D|------------------------------------------------|



Not to sure bout this bit, and theres two guitars but 
i only tabbing one

e|-------------------------|
b|-------------------------|
g|-12-/-14--14-14----------|
D|-x--/-x---x--x-----------|
A|-10-/-12--12-12----------|
D|-------------------------|

middle


e|-----------------------------------------|
b|-----------------------------------------|
g|-999999999--77777777--55555555--44444444-|
D|-999999999--77777777--55555555--44444444-|
A|-777777777--55555555--33333333--22222222-|
D|-----------------------------------------|

Breakdown

e|---------------------------------|
b|---------------------------------|
g|---------------------------------|
D|-7---0---3---10---0--------------|
A|-7---0---3---10---0--------------|
D|-7---0---3---10---0--------------|

THEN

Guitar 1

e|---------------------------|
b|---------------------------|
g|-14-14-xx-14-14-xx---------|
D|-x--x--xx-x--x--xx---------|
A|-12-12-xx-12-12-xx---------|
D|---------------------------|

Guitar 2

e|---------------------------------|
b|---------------------------------|
g|---------------------------------|
D|-7-7--3-3-10-0-0-10--0-10-12-----|
A|-7-7--3-3-10-0-0-10--0-10-12-----|
D|-7-7--3-3-10-0-0-10--0-10-12-----|

then go to the chorus but kick on some heavy ass
dist.


End on the Breakdown
Comments