Lostprophets - Burn Burn Chords & Tabs

 

Burn Burn Chords & Tabs

Lostprophets Chords & Tabs

Version: 3 Type: Tab 0 ratings
1 star 2 stars 3 stars 4 stars 5 stars
comments

Burn Burn Tab

drop D tuning (DADGBe)

intro(Clean)/Chorus (H.Destorsion)/Outro (H.Destorsion)
e|-------------------------------------------|
B|-------------------------------------------|
G|-------------------------------------------|
D|-7-7--3-3--x--10-10--0-0----10--0--10/12---|
A|-7-7--3-3--x--10-10--0-0----10--0--10/12---|
D|-7-7--3-3--x--10-10--0-0----10--0--10/12---|

[ Tab from: http://www.guitartabs.cc/tabs/l/lostprophets/burn_burn_tab_ver_3.html ]
Intelude
e|------------------|
B|------------------|
G|------------------|
D|-7--0--3--10--0~--|
A|-7--0--3--10--0~--|
D|-7--0--3--10--0~--|


Bridge
e|-555--555--555--555--| (Repeat 6 times then fade out)
B|---------------------|
G|---------------------|
D|---------------------|
A|---------------------|
D|---------------------|

Im pretty sure this is 100% coz i got the first part out of Total guitar
ENJOY
n e queries email:- skater_rocker2003@hotmail.com
Comments