Lostprophets - Burn Burn Chords & Tabs

 

Burn Burn Chords & Tabs

Lostprophets Chords & Tabs

Version: 2 Type: Tab 0 ratings
1 star 2 stars 3 stars 4 stars 5 stars
comments

Burn Burn Tab

tabbed by Bassest123

easy tab so well stop reading and start playing
[ Tab from: http://www.guitartabs.cc/tabs/l/lostprophets/burn_burn_tab_ver_2.html ]
e------------------------------]
b------------------------------]
g------------------------------]
d-22----55----5---5-7----------]
a-00-33-33-55-3-5-3-5----------]
e----11----33---3--------------]

then bass part
g-----------------------------------------------]
d-----------------------------------------------]
a-00--33--3-35----------------------------------]
e---11--33-3------------------------------------]


see what did i say.
Comments