Lostprophets - Burn Burn Chords & Tabs

 

Burn Burn Chords & Tabs

Lostprophets Chords & Tabs

Version: 1 Type: Tab 0 ratings
1 star 2 stars 3 stars 4 stars 5 stars
comments

Burn Burn Tab

Lost Prophets - Burn Burn
Tabbed by: Jay Buckley
Email: epeon@aol.com (please mail me if you have corrections)

This is my first tab so don't rate it too badly please :)

Drop D (DADGBE)

Intro Riff - Clean
E|---------------------------------------------------------------| 
B|---------------------------------------------------------------| 
G|-2--2--------5--5--------------5-----5/7-----------------------|
D|-2--2--33----5--5--00------------5-----------------------------| 
A|-0--0--33----3--3--00------------------------------------------| 
D|-------33----------00------------------------------------------|

Chorus/Verse - Heavy Distortion
“Burn Burn the stations.....”
E|---------------------------------------------------------------| 
B|---------------------------------------------------------------| 
G|-22--------55----------------5-----5/7-------------------------|
D|-22--33----55--00--------------5-------------------------------|
A|-00--33----33--00----------------------------------------------| 
D|-----33--------00----------------------------------------------|

Break - Heavy Distortion
E|---------------------------------------------------------------| 
B|---------------------------------------------------------------| 
G|-2--------5----------------------------------------------------|
D|-2--0--3--5--0---*let ring*------------------------------------| 
A|-0--0--3--3--0-------------------------------------------------| 
D|----0--3-----0-------------------------------------------------| 
[ Tab from: http://www.guitartabs.cc/tabs/l/lostprophets/burn_burn_tab.html ]
Bridge
E|---------777~---777~---777~------------------------------------| 
B|---------------------------------------------------------------| 
G|----5/---------------------------------------------------------|
D|---------------------------------------------------------------| 
A|---------------------------------------------------------------| 
D|---------------------------------------------------------------| 

I've not included the Rhythm guitar, its pretty obselete so there isn't much point.

Lyrics

Where do I begin, with this life we're living in 
Market  youth their uniform, make us all fit in 
But do  you think, that we're that  blind? 
That we can't see through  all your lies? 

Cause if its no good 
burn burn the  stations 
we'll burn it down 
burn burn the truth 
enjoy  the flames 
in celebration 
enjoy the sound 
for us for  them  for you 

I know that ive been told 
My intergrity  was sold 
Price  and placed upon the shelf 
Its worth its  weight in gold 
But do you think  we've lost our minds? 
Yeah  we can see through all your lies? 

Cause  if its no good 
burn burn the stations 
we'll burn it down 
burn burn  the truth 
enjoy the flames 
in celebration 
enjoy the  sound 
for us  for them for you 

burn burn the truth  the lies the news 
burn burn the  life that you cant choose 
burn burn the hate that gets you through 
burn  burn for  us, for them, for you 
burn burn for us, for them, for you 
burn  burn for us, for them, for you 
burn burn for us, for them,  for you 

Cause if its no good 
burn burn the stations 
we'll burn it down 
burn burn the truth 
enjoy the flames 
in celebration 
enjoy the  sound 
for us for them for  you 
Cause if its no good 
burn burn the  stations 
we'll  burn it down 
burn burn the truth 
enjoy the flames 
in  celebration 
enjoy the sound 

for us for them for you 
for  us for them for you 
for us for them for you 
for  us for them for you 
for us for them for you
Comments