Lostprophets - And She Told Me To Leave Chords & Tabs

 

And She Told Me To Leave Chords & Tabs

Lostprophets Chords & Tabs

Version: 1 Type: Tab 0 ratings
1 star 2 stars 3 stars 4 stars 5 stars
comments

And She Told Me To Leave Tab

Artist- Lost Prophets
Song- ...and she told me to leave
Tabber- Iconoclast
Tuning- Drop D, then down a whole step. (CGCFAD)


Riff 1 (played clean with tremolo)
-------------------------------------
---3-------3---3---------------------
-----0---0---------------------------
-2-----4-----0-----------------------
-------------------------------------
-------------------------------------

Riff 2         after a while this comes in
--------------|--------------------------
-3-3-3-3-3-3--|--------------------------
-x-x-x-x-x-x--|-7-7-7-*4-*5--------------
-5-5-5-5-5-5--|-5-5-5--------------------
-2-2-2-3-3-3--|-5-5-5--------------------
-2-2-2--------|-5-5-5--------------------

Between Riff 2 and 3 this is played
------------------------------
------------------------------
---7-7------------------------
-5-5-7------------------------
-3---5------------------------
------------------------------
[ Tab from: http://www.guitartabs.cc/tabs/l/lostprophets/and_she_told_me_to_leave_tab.html ]
Riff 3- Guitar 1
----------------------------------------------------
----------------------------------------------------
-------------------------------------------5--------
---------------------------------------5-5-5-5-5-5--
---------------------------------------3-3-3-3-3-3--
-2-2-0-2-0-2-0-2-4-2--2-2-0-2-0-2-4-2--5-4---5-4-0--

Riff 3- Guitar 2 (repeat first line as needed)
-12----------------12----------------10----------
----12-10-12-13-12----12-10-12-13-12----12-13-12-
-------------------------------------------------
-------------------------------------------------
-------------------------------------------------
-------------------------------------------------

-------------------------------------
-13-12-13-12-15-12-13-12-15-12-13-12-
-------------------------------------
-------------------------------------
-------------------------------------
-------------------------------------

Riff 4 (play each 5 times)
-12-12-12-15-19----|-12-12-12-12-12---------------
-12-10-13-17-17----|-12-10-13-15-13---------------
-------------------|------------------------------
-------------------|------------------------------
-------------------|------------------------------
-------------------|------------------------------

Enjoy. Check out my Onesidezero tabs, i have the whole
ablum tabbed, but they havent published it on the site yet.
Comments