Lostprophets - And She Told Me To Leave Live Chords & Tabs

 

And She Told Me To Leave Live Chords & Tabs

Lostprophets Chords & Tabs

Version: 1 Type: Tab 0 ratings
1 star 2 stars 3 stars 4 stars 5 stars
comments

And She Told Me To Leave Live Tab

Lostprophets - ...andshetoldmetoleave (live)
Tabbed: Will Sharp
Tuning : CGCFAD
Email: chimaira_tool@hotmail.com

This tab is 100% correct - im sure of it.  It was tabbed from the 
NME video and Reading 02 video.  The Bridge (if you can call it that)
is absolutely correct for both the Live and cd versions as well as
the Guitar 1 solo.  Enjoy.  Dont pass this off as ur own!


Intro:
Guitar 1 only:(w/ chorus effect)
		    x3
D|-------------------|-----------------0--------------------|
A|---3--------3---3--|-----3--------3---3-------------------|
F|-----0----0--------|------0----0--------------------------|
C|-2------4-----0----|--2------4-----0----------------------|
G|-------------------|--------------------------------------|
C|-------------------|--------------------------------------|

Verse:
Guitar 1:
		    x3
D|-------------------|-------------0------------------------|
A|---3--------3---3--|-----3---------3----------------------|
F|-----0----0--------|------0----0-----0--------------------|
C|-2------4-----0----|--2------4----------------------------|
G|-------------------|--------------------------------------|
C|-------------------|--------------------------------------|

(Guitar 2 comes in here)
		    x3
D|-------------------|-----------------0--------------------|
A|---3--------3---3--|-----3--------3---3-------------------|
F|-----0----0--------|------0----0--------------------------|
C|-2------4-----0----|--2------4-----0----------------------|
G|-------------------|--------------------------------------|
C|-------------------|--------------------------------------|

		    x4 (on 4th repeat let the last note ring)
D|-------------------|--------------------------------------|
A|---3--------3---3--|--------------------------------------|
F|-----0----0--------|--------------------------------------|
C|-2------4-----0----|--------------------------------------|
G|-------------------|--------------------------------------|
C|-------------------|--------------------------------------|

		    x3
D|-------------------|-------------0------------------------|
A|---3--------3---3--|-----3---------3----------------------|
F|-----0----0--------|------0----0-----0--------------------|
C|-2------4-----0----|--2------4----------------------------|
G|-------------------|--------------------------------------|
C|-------------------|--------------------------------------|

Guitar 2: comes in where marked above, plays something like this
(w/ chorus effect on)
D|-----3------3------3------5------5------5------3------3--|
A|-----3------3------3------3------3------3------5------5--|
F|---------------------------------------------------------|
C|-2------2------2------4------4------4------0------0------|
G|---------------------------------------------------------|
C|---------------------------------------------------------|
							  x3
D|----3------3~--------------------------------------------|
A|----5------3~--------------------------------------------|
F|---------------------------------------------------------|
C|0------0-------------------------------------------------|
G|---------------------------------------------------------|
C|---------------------------------------------------------|


Pre-chorus:
Both Guitars: guitar 1 will miss the 1st group of chords played
	      as he plays last 3 notes of verse (listen to cd/vid)
(w/ distortion)
D|---------------------------------------------------------|
A|--3-3-3--------3-3-3-3-3-3-3--------3-3-3-3-3-3-3--------|
F|--4-4-4--------4-4-4-4-4-4-4--------4-4-4-4-4-4-4--------|
C|--2-2-2--------2-2-2-2-2-2-2--------2-2-2-2-2-2-2--------|
G|--5-5-5--------5-5-5-5-5-5-5--------5-5-5-5-5-5-5--------|
C|--2-2-2--------2-2-2-2-2-2-2--------2-2-2-2-2-2-2--------|

		   Guitar 1 plays this bit 
		   while Guitar 2 plays
		   group of chords again      Guitar 2
D|----------------|---19-19--------------|-----------------|
A|-3-3-3-3-3-3-3--|---------20-20--------|-3-3-3-3-3-3-3---|
F|-4-4-4-4-4-4-4--|---------------19-19\-|-4-4-4-4-4-4-4---|
C|-2-2-2-2-2-2-2--|----------------------|-2-2-2-2-2-2-2---|
G|-5-5-5-5-5-5-5--|----------------------|-5-5-5-5-5-5-5---|
C|-2-2-2-2-2-2-2--|----------------------|-2-2-2-2-2-2-2---|

Both Guitars:
(notes in brackets are notes played but Guitar 1 only)
D|---------------------------------------------------------|
A|-(3)-(3)(3)-3-3-3-3-3-3-3---(3)-(3)(3)-3-3-3-3-3-3-3-----|
F|-(4)-(4)(4)-4-4-4-4-4-4-4---(4)-(4)(4)-4-4-4-4-4-4-4-----|
C|-(2)-(2)(2)-2-2-2-2-2-2-2---(2)-(2)(2)-2-2-2-2-2-2-2-----|
G|-(5)-(5)(5)-5-5-5-5-5-5-5---(5)-(5)(5)-5-5-5-5-5-5-5-----|
C|-(2)-(2)(2)-2-2-2-2-2-2-2---(2)-(2)(2)-2-2-2-2-2-2-2-----|

D|-------------------------------0~------------------------|
A|-(3)-(3)(3)-3-3-3-3-3----3~------------------------------|
F|-(4)-(4)(4)-4-4-4-4-4------------------------------------|
C|-(2)-(2)(2)-2-2-2-2-2--2~--------------------------------|
G|-(5)-(5)(5)-5-5-5-5-5-------5~---------------------------|
C|-(2)-(2)(2)-2-2-2-2-2------------------------------------|

Chorus:
Both Guitars or
Guitar 2: (distortion on)
			    
		     x2	   			   
D|--------------------|------------------------------------|
A|--------------------|------------------------------------|
F|--------------------|------------------------------------|
C|--------------------|-----------5~---------------7~------|
G|-2~-2--0h2-0h2--4-2-|--5~--4~---3~------5~--4~---5~------|
C|-2~-2--0h2-0h2--4-2-|--5~--4~-----------5~--4~---0~------|

		     x2					   
D|--------------------|------------------------------------|
A|--------------------|------------------------------------|
F|--------------------|------------------------------------|
C|--------------------|-----------5~---------------7~------|
G|-2~-2--0h2-0h2--4-2-|--5~--4~---3~------5~--4~---5~------|
C|-2~-2--0h2-0h2--4-2-|--5~--4~-----------5~--4~---0~------|

Live, both guitars play this but on cd, guitar 1 plays this:
[ Tab from: http://www.guitartabs.cc/tabs/l/lostprophets/and_she_told_me_to_leave_live_tab.html ]
Overlay:
Guitar 1:
					      x6
D|-12--------------12--------------------------|------------|
A|---12--12-13-12----12--12-13-12-15-12-13-12--|-13-12-13-12|
F|-----14--------------14----------------------|------------|
C|---------------------------------------------|------------|
G|---------------------------------------------|------------|
C|---------------------------------------------|------------|

D|---------------------------------------------------------|
A|-15-12-13-12-15-12-13-12-12\-----------------------------|
F|---------------------------------------------------------|
C|---------------------------------------------------------|
G|---------------------------------------------------------|
C|---------------------------------------------------------|
Note: this is played much faster live than on the cd.  When live,
it is only played on the 3rd repeat of the chorus.  On the cd, it
is played over every repeat of the chorus.
To play it at the speed played live, you need to 'alternate-pick' them
so every stroke of the pick (the up an down movement) hits a note.


Play verse, pre-chorus and chorus again (chorus is repeated twice
while on the 2nd repeat [3rd time played overall] guitar 1 plays
the overlay)


Bridge:
Then Both Guitars play this:
		  x2		    x2			  x2
D|-0---0--0--0--0--|-0---0--0--0--0--|-0---0--0--0--0------|
A|-17--17-17-17-17-|-12--12-12-12-12-|-13--13-13-13-13-----|
F|-16--16-16-16-16-|-14--14-14-14-14-|-14--14-14-14-14-----|
C|-14--14-14-14-14-|-14--14-14-14-14-|-12--12-12-12-12-----|
G|-----------------|-----------------|---------------------|
C|-----------------|-----------------|---------------------|

							  x2
D|-15--15-15-15-15-|-19--19-19-19-19-|-0---0--0--0--0------|
A|-17--17-17-17-17-|-17--17-17-17-17-|-17--17-17-17-17-----|
F|-16--16-16-16-16-|-16--16-16-16-16-|-16--16-16-16-16-----|
C|(0)-(0)(0)(0)(0)-|(0)-(0)(0)(0)(0)-|-14--14-14-14-14-----|
G|-----------------|-----------------|---------------------|
C|-----------------|-----------------|---------------------|

		  x2		    x2
D|-0---0--0--0--0--|-0---0--0--0--0--|-0---0--0--0--0------|
A|-12--12-12-12-12-|-13--13-13-13-13-|-15--15-15-15-15-----|
F|-14--14-14-14-14-|-14--14-14-14-14-|-14--14-14-14-14-----|
C|-14--14-14-14-14-|-12--12-12-12-12-|-12--12-12-12-12-----|
G|-----------------|-----------------|---------------------|
C|-----------------|-----------------|---------------------|

D|-0---0--0--0--0------------------------------------------|
A|-13--13-13-13-13-----------------------------------------|
F|-14--14-14-14-14-----------------------------------------|
C|-12--12-12-12-12-----------------------------------------|
G|---------------------------------------------------------|
C|---------------------------------------------------------|

Guitar 2 carries on this riff while Guitar 1 plays the solo 
until both guitars reach the Ending Solo which they play.

Solo:
Guitar 1: (chorus effect on)
(bracketed notes are optional.The 12/13\12 was played at reading 02)
D|--------------------------------------------------12--14-|
A|--10h12-10----10--8-7-----------(12/1312)---10/12---12---|
F|-----------12----------9-7-------------------------------|
C|----------------------------9v~--------------------------|
G|---------------------------------------------------------|
C|---------------------------------------------------------|

D|---15--14---12--10-10--10/12(\10)------------------------|
A|-12--12--12----------------------------------------------|
F|---------------------------------9/12-----------------12-|
C|-------------------------------------12-9~---9~-12/14----|
G|------------------------------------------12-------------|
C|---------------------------------------------------------|

D|---------------------------------------------------------|
A|---------------------------------------------------------|
F|-9----------12/14-12-11----------------14---------12h14--|
C|---------12-------------12/14\12--12h14--14--12h14-------|
G|---12/14-------------------------------------------------|
C|---------------------------------------------------------|

	    Keep Distortion/Sustain on from this point	  x4
D|---------|-----------------------------------------------|
A|---------|-----------------------------------------------|
F|-12-11---|-14-14-14/16\14--14/16\14--14/16\14--14/16\14--|
C|------12-|------(14/16\14)(14/16\14)(14/16\14)(14/16\14)-|
G|---------|-----------------------------------------------|
C|---------|-----------------------------------------------|

							  x4
D|--------|------------------------------------------------|
A|--------|------------------------------------------------|
F|-12-14--|-14-14-14/16\14--14/16\14--14/16\14--14/16\14---|
C|--------|------(14/16\14)(14/16\14)(14/16\14)(14/16\14)--|
G|--------|------------------------------------------------|
C|--------|------------------------------------------------|


Ending Solo:
Both Guitars: (w/ distortion)
D|---------------------------------------------------------|
A|---------------------------------------------------------|
F|-12-14-14~-12--9-9~---7-9-9/11--12-11-9~--9/14-12-11-7h9~|
C|---------------------------------------------------------|
G|---------------------------------------------------------|
C|---------------------------------------------------------|

D|---------------------------------------------------------|
A|---------------------------------------------------------|
F|-7/11~\7h9~--9/11--12--9---------------------------------|
C|-------------------------12-14-14~---12h14-14b15~-14~-12-|
G|---------------------------------------------------------|
C|---------------------------------------------------------|

D|---------------------------------------------------------|
A|---------------------------------------------------------|
F|---------------------------------------------------------|
C|-12-12h14~\----------------------------------------------|
G|---------------------------------------------------------|
C|---------------------------------------------------------|

Order:  Intro (Guitar 1 only)
	Verse
	Pre-chorus
	Chorus (w/ optional Overlay)
	Verse
	Pre-chorus
	Chorus (w/ optional Overlay)
	Chorus w/Overlay
	Bridge (Guitar 2 plays x2)
	Solo (Guitar 1 only)
	Ending Solo (Both Guitars)

Thats it, comments/anything email me.
Comments