Lostprophets - A Thousand Apologies Chords & Tabs

 

A Thousand Apologies Chords & Tabs

Lostprophets Chords & Tabs

Version: 1 Type: Tab 0 ratings
1 star 2 stars 3 stars 4 stars 5 stars
comments

A Thousand Apologies Tab

   
Artist - Lostprophets
Song   - A Thousand Apologies
Album  - The Fake Sound of Progress
Tuning - C G C F A D
Tabbed by Jamie Williams (lpweb@shaw.ca)

PM... = palm mute
^     = bend
/     = slide
p     = pull off
h     = hammer on
x     = mute

Intro - Lee [0:00]
D-|-----------------------------------------------------------------------------|
A-|-----------------------------------------------------------------------------|
F-|-----------------------------------------------------------------------------|
C-|--------5--------------------------------------------------------------------|
G-|--------5--------------------------------------------------------------------|
C-|-2p1-1-----1-1h2p1-----------------------------------------------------------|

D-|-----------------------------------------------------------------------------|
A-|-----------------------------------------------------------------------------|
F-|-----------------------------------------------------------------------------|
C-|----------5------------------------------------------------------------------|
G-|----------4------------------------------------------------------------------|
C-|-1-2p1-1----1-1h2p1-1--------------------------------------------------------|

Intro 2 - Lee & Mike [0:04]
D-|-----------------------------------------------------------------------------|
A-|-----------------------------------------------------------------------------|
F-|-----------------------------------------------------------------------------|
C-|--------5--------------------------------------------------------------------|
G-|-2p1-1--5--1-1h2p1-----------------------------------------------------------|
C-|-2p1-1--0--1-1h2p1-----------------------------------------------------------|

D-|-----------------------------------------------------------------------------|
A-|-----------------------------------------------------------------------------|
F-|-----------------------------------------------------------------------------|
C-|----------5------------------------------------------------------------------|
G-|-1-2p1-1--4--1-1h2p1-1-------------------------------------------------------|
C-|-1-2p1-1--0--1-1h2p1-1-------------------------------------------------------|

Intro 3 - Lee & Mike [0:20]
D-|-----------------------------------------------------------------------------|
A-|-----------------------------------------------------------------------------|
F-|-------4-----------8-----11--11/---------------------------------------------|
C-|-2-----2-----4-----8------9---9/-Slide Down Fretboard------------------------|
G-|-2-----------4-----6------9---9/---------------------------------------------|
C-|-2-----------4---------------------------------------------------------------|

Intro 3 Cont'd - Lee & Mike [0:27]
D-|-----------------------------------------------------------------------------|
A-|-----------------------------------------------------------------------------|
F-|-------4-----------8------6--------------------------------------------------|
C-|-2-----2-----4-----8------6--------------------------------------------------|
G-|-2-----------4-----6------4--------------------------------------------------|
C-|-2-----------4---------------------------------------------------------------|

Fill - Lee & Mike [0:35] [01:40]
D-|-----------------------------------------------------------------------------|
A-|-----------------------------------------------------------------------------|
F-|-----------------------------------------------------------------------------|
C-|-0~--------------------------------------------------------------------------|
G-|-0~--------------------------------------------------------------------------|
C-|-0~--------------------------------------------------------------------------|

Verse - Mike [0:39] [01:44] "Supreme, funds come my way"
D-|-----------------------------------------------------------------------------|
A-|-----------------------------------------------------------------------------|
F-|-----------------------------------------------------------------------------|
C-|-----------------------------------------------------------------------------|
G-|---7-5-----7-5---7-3-----7-3-------------------------------------------------|
C-|-0-----0-0-----0-----0-0-----------------------------------------------------|

D-|-----------------------------------------------------------------------------|
A-|-----------------------------------------------------------------------------|
F-|-----------------------------------------------------------------------------|
C-|-----------------------------------------------------------------------------|
G-|---7-5-----7-5---7-3-----7-3-------------------------------------------------|
C-|-3-----3-3-----3-----3-3-----------------------------------------------------|

Verse - Lee [0:39] [01:44] "Supreme, funds come my way"
D-|-----------------------------------------------------------------------------|
A-|-----------------------------------------------------------------------------|
F-|-----------------------------------------------------------------------------|
C-|---------------------3----3----3----3----------------------------------------|
G-|-0----0----0----0----1----1----1----1----------------------------------------|
C-|-0----0----0----0------------------------------------------------------------|
[ Tab from: http://www.guitartabs.cc/tabs/l/lostprophets/a_thousand_apologies_tab.html ]
Pre-Chorus - Mike & Lee [01:10] [02:17] "And you're all very proud"
D-|-----------------------------------------------------------------------------|
A-|-----------------------------------------------------------------------------|
F-|-------------------------10-10-10--------------------------------------------|
C-|-------------------------10-10-10-10-10-10-----------------------------------|
G-|-5---5---5---7---7---7----8--8--8--8--8--8-----------------------------------|
C-|---0---0---0---0---0---0-----------8--8--8-----------------------------------|

Pre-Chorus Cont'd - Mike [01:17] [02:23] "And I feel, so real"
D-|-----------------------------------------------------------------------------|
A-|-----------------------------------------------------------------------------|
F-|-----------------------------------------------------------------------------|
C-|-------------------------10-10-10-10-10-10-----------------------------------|
G-|-5---5---5---3---3---3----8--8--8--8--8--8-----------------------------------|
C-|---0---0---0---0---0---0--8--8--8--8--8--8-----------------------------------|

Pre-Chorus Cont'd - Lee [01:17] [02:23] "And I feel, so real"
D-|------------------------------------888--666--555----------------------------|
A-|------------------------------------xxx--xxx--xxx----------------------------|
F-|-------------------------3-3-3------555--333--222----------------------------|
C-|-------------------------3-3-3-----------------------------------------------|
G-|-5---5---5---3---3---3---1-1-1-----------------------------------------------|
C-|---0---0---0---0---0---0-----------------------------------------------------|

Chorus - Lee Only [01:25] [02:30] "Have I ever asked for more?"
D-|-------------------------------5-6-5-6-5-6-5---5-6-6--5-5-5------------------|
A-|-------------------------------x-x-x-x-x-x-x---x-x-x--x-x-x------------------|
F-|-------------------------------7-7-7-7-7-7-7---7-7-7--7-7-7------------------|
C-|-5-5-5-5--5--5--5-5-5-5--5--5--7-7-7-7-7-7-7---7-7-7--7-7-7------------------|
G-|-3-3-3-3--3--3--2-2-2-2--2--2--5-5-5-5-5-5-5---5-5-5--5-5-5------------------|
C-|-----------------------------------------------------------------------------|

Bridge - Lee & Mike [02:45] "Can't you stick out your face"
D-|-------------------------------------------------------------------|-End on--|
A-|-------------------------------------------------------------------|--last---|
F-|-------------------------------------------------------------------|--time---|
C-|-555-555-555-555-555-999-999-77-10-10-10-10-10-10-10-10-10-10--9-9-|-12-12---|
G-|-333-333-333-333-333-777-777-55--8--8--8--8--8--8--8--8--8--8--7-7-|-10-10---|
C-|-------------------------------------------------------------------|---------|

Bridge 2 - Lee & Mike [03:00] "I know it's all in there"
D-|-----------------------------------------------------------------------------|
A-|-----------------------------------------------------------------------------|
F-|-----------------------------------------------------------------------------|
C-|-----------------------------------------------------------------------------|
G-|-2-1-1-1-2-1-1-1-2-1-1-2-1-1-------------------------------------------------|
C-|-2-1-1-1-2-1-1-1-2-1-1-2-1-1-------------------------------------------------|
PM  . . . . . . . . . . . . . .

Bridge 3 - Lee & Mike [03:14] "I can't see that far"
D-|---------------------------------|-------------------------------------------|
A-|---------------------------------|-------------------------------------------|
F-|---------------------------------|-------------------------------------------|
C-|---------------------------------|-------------------------------------------|
G-|-2-1-1-4^-1-2-1-2-1-1-4^-1-(x2)--|-0-End on second time----------------------|
C-|-2-1-1----1-2-1-2-1-1----1-------|-0-----------------------------------------|

Bridge 4 - Lee & Mike [03:29]
D-|-----------------------------------------------------------------------------|
A-|-----------------------------------------------------------------------------|
F-|-----------------------------------------------------------------------------|
C-|-2-0-1-----------------------------------------------------------------------|
G-|-2-0-1-----------------------------------------------------------------------|
C-|-2-0-1-----------------------------------------------------------------------|

Bridge 4 Cont'd - Lee
  |1st time | 2nd time | 3rd time | 4th time
D-|---------|----------|----------|---------------------------------------------|
A-|---------|----------|----------|---------------------------------------------|
F-|-12------|-7--------|-12-------|-6-------------------------------------------|
C-|--x------|-x--------|--x-------|-x-------------------------------------------|
G-|-10------|-5--------|-10-------|-4-------------------------------------------|
C-|---------|----------|----------|---------------------------------------------|

Bridge 4 - Lee & Mike [03:33] "Ultimatum time now"
D-|-----------------------------------------------------------------------------|
A-|-----------------------------------------------------------------------------|
F-|-----------------------------------------------------------------------------|
C-|-----------------------------------------------------------------------------|
G-|-2--2--2--2--2-2-------------------------------------------------------------|
C-|-2--2--2--2--2-2-------------------------------------------------------------|
PM  .  .  .  .  . .

visit my lostprophets fansite @ http://lpweb.alternatemusic.com/
Comments