Lostprophets - A Million Miles Chords & Tabs

 

A Million Miles Chords & Tabs

Lostprophets Chords & Tabs

Version: 2 Type: Tab 0 ratings
1 star 2 stars 3 stars 4 stars 5 stars
comments

A Million Miles Tab

   
Lostprophets - A Million Miles
Tabber: Will Sharp
Tuning: Drop D (EBGDAD)
Email: chimaira_tool@hotmail.com

Ok, this tab is pretty accurate cos it took me f'in ages an was a complete
bitch to tab.  Im sure of the frets used for Guitar 1's super-fast picking in
the Verse, pretty sure I got the chorus picking right too.  Enjoy

Guitar 1 has to be able to pick rly fast btw so you'll hav to listen to the
leads on the CD.  Same goes for Guitar 2's distorted chords - listen to CD 
for timing.

(email me if u agree or disagree with these "long-winded" explainations [well 
 lostprophetguy/Damien Mee thinks they are] i.e, do u the reader find them
 helpful or annoying on my tabs?? - u dnt hav to read 'em.  I only ask cos 
 lostprophetguy rates my tabs shite/tries too, which is just stupid an tiring.)  

INTRO:
Guitar 1: (slightly distorted)
E|--12----12----12----12----12----12----12----12--------------------------|
B|-----12----12----12----12----14----14----14----14--12---12---12---12----|
G|------------------------------------------------------9----9----9----9--|
D|------------------------------------------------------------------------|
A|------------------------------------------------------------------------|
D|------------------------------------------------------------------------|

		       x2
E|----------------------|--0~---------------------------------------------|
B|-10---10---10---10----|-------------------------------------------------|
G|----9----9----9----9--|-------------------------------------------------|
D|----------------------|-------------------------------------------------|
A|----------------------|-------------------------------------------------|
D|----------------------|-------------------------------------------------|


Alternatively, on the second repeat at the end, because the violins make the 
riff sound as if it goes down even lower in pitch, replace the "10,9" riff 
with this:
E|---------------------0~-------------------------------------------------|
B|-10---10----9----9------------------------------------------------------|
G|----9----9----9----9----------------------------------------------------|
D|------------------------------------------------------------------------|
A|------------------------------------------------------------------------|
D|------------------------------------------------------------------------|


Guitar 2: (Distorted)			   x2
E|------------------------------------------|-----------------------------|
B|------------------------------------------|-----------------------------|
G|------------------------------------------|-----------------------------|
D|--4~--------0~--------9~--------7~--------|--4~-------------------------|
A|--4~--------0~--------9~--------7~--------|--4~-------------------------|
D|--4~--------0~--------9~--------7~--------|--4~-------------------------|


VERSE:
Guitar 2:
			x3		Guitar 1 comes in here:
E|-----------------------|-----------|------------------------------------|
B|-----------------------|-----------|------------------------------------|
G|-----------------------|-----------|------------------------------------|
D|--4-4-4-4--4*-4*-4*-4*-|--4-4-4-4--|--4-4-4-4-4-4-4-4-6-6-6-6-6-6-6-6-6-|
A|--4-4-4-4--4*-4*-4*-4*-|--4-4-4-4--|--4-4-4-4-4-4-4-4-6-6-6-6-6-6-6-6-6-|
D|--4-4-4-4--4*-4*-4*-4*-|--4-4-4-4--|--4-4-4-4-4-4-4-4-6-6-6-6-6-6-6-6-6-|

									 x4
E|------------------------------------------------------------------------|
B|------------------------------------------------------------------------|
G|------------------------------------------------------------------------|
D|-7-7-7-7-7-7-7-7-11-11-11-11-11-11-11-11--------------------------------|
A|-7-7-7-7-7-7-7-7-11-11-11-11-11-11-11-11--------------------------------|
D|-7-7-7-7-7-7-7-7-11-11-11-11-11-11-11-11--------------------------------|


Guitar 1: Comes in (where marked above) on 1st note played in that section.

	 (Guitar 1 plays part of Guitar 2's riff but it is slightly higher in 
	  pitch, so it is most likely an extra string used.  I think I found 
	  the right pitch but i only put it on 1 string.  
		If you find that there is a noticible difference then play 
	  Guitar 2's riff with an added G string at frets 6,8,9,13 (same structure)

E|------------------------------------------------------------------------|
B|------------------------------------------------------------------------|
G|------------------------------------------------------------------------|
D|------------------------------------------------------------------------|
A|-9-9-9-9-9-9-9-9-11-11-11-11-11-11-11-11-12-12-12-12-12-12-12-12-16-16--|
D|------------------------------------------------------------------------|

E|------------------------------------------------------------------------|
B|------------------------------------------------------------------------|
G|--------------------------11~------9~-----------------------------------|
D|-----------------------11-------11--------------------------------------|
A|-16-16-16-16-16-16---9--------9-------9-9-9-9-9-9-9-9-11-11-11-11-11-11-|
D|------------------------------------------------------------------------|

E|------------------------------------------------------------------------|
B|------------------------------------------------------------------9-----|
G|-------------------------------------------------------11~------9--9--9-|
D|----------------------------------------------------11-------11-----11--|
A|-11-11-12-12-12-12-12-12-16-16-16-16-16-16-16-16--9--------9------------|
D|------------------------------------------------------------------------|

E|------------------------------------------------------------------------|
B|-9----------12-9------9-9-9-9---9----------12-9------9-9-9-9~-----------|
G|---9--9--9-9----9---9-------------9--9--9-9----9--9------------------11~|
D|----11-11--------11----------------11-11--------11----------------11----|
A|----------------------------------------------------------------9-------|
D|------------------------------------------------------------------------|

E|------------------------------------------------------------------------|
B|--------9---------------------------------------------------------------|
G|------9--(9)------------------------------------------------------------|
D|---11-------------------------------------------------------------------|
A|-9-----------9-9-9-9-9-9-9-9-11-11-11-11-11-11-11-11-12-12-12-12-12-12--|
D|------------------------------------------------------------------------|

E|------------------------------------------------------------------------|
B|-------------------------------9----------------------------------------|
G|---------------------------------9---9-9--9~----------------------------|
D|-----------------------------------11---11------------------------------|
A|-12-12-16-16-16-16-16-16-16-16------------------------------------------|
D|------------------------------------------------------------------------|



CHORUS:
Guitar 2: (Distortion)
E|------------------------------------------------------------------------|
B|------------------------------------------------------------------------|
G|------------------------------------------------------------------------|
D|-4~------7~------2~------7~--9~------4~------7~------2~------7-7-7-9-12-|
A|-4~------7~------2~------7~--9~------4~------7~------2~------7-7-7-9-12-|
D|-4~------7~------2~------7~--9~------4~------7~------2~------7-7-7-9-12-|

E|------------------------------------------------------------------------|
B|------------------------------------------------------------------------|
G|------------------------------------------------------------------------|
D|-4-4-4-x-4---7~------2-2-2-x-2---7~--9~------4-4-4-x-4---7~------2-2-2-x|
A|-4-4-4-x-4---7~------2-2-2-x-2---7~--9~------4-4-4-x-4---7~------2-2-2-x|
D|-4-4-4-x-4---7~------2-2-2-x-2---7~--9~------4-4-4-x-4---7~------2-2-2-x|

E|------------------------------------------------------------------------|
B|------------------------------------------------------------------------|
G|------------------------------------------------------------------------|
D|-2---7-7-7-9-12---------------------------------------------------------|
A|-2---7-7-7-9-12---------------------------------------------------------|
D|-2---7-7-7-9-12---------------------------------------------------------|
[ Tab from: http://www.guitartabs.cc/tabs/l/lostprophets/a_million_miles_tab_ver_2.html ]
Guitar 1: (Distorted like before - carries on from the last part played in their
	   verse riff. NOTE the 11th fret kinda gives the muted-string effect 
	   heard, but you could mute the string on that fret slightly instead.)
E|------------------------------------------------------------------------|
B|-9-------12--9------9-9--9-------12-9-9-12h14--12--9-------12--9------9-|
G|--9--9--9-----9--9--------9--9--9----9--------9-----9--9--9-----9--9----|
D|---11-11-------11-11-------11-11---------------------11-11-------11-11--|
A|------------------------------------------------------------------------|
D|------------------------------------------------------------------------|

E|------------------------------------------------------------------------|
B|-9--9----------------------(9)-----------12-9---12-12-(12)--9---------12|
G|-----9--9---------------------9--9--9-9-9----9-9---------------9--9--9--|
D|------11-11-11--7-7-7-9-12-----11-11-------------------------11-11-11---|
A|----------------7-7-7-9-12----------------------------------------------|
D|----------------7-7-7-9-12----------------------------------------------|

E|------------------------------------------------------------------------|
B|-9---12h14-12h14--9---------12-9----9-9-9---9---------------------------|
G|--9------------------9--9--9-----9-9---------9--9-----------------------|
D|-------------------11-11-11-------------------11-11-11--7-7-7-9-12------|
A|--------------------------------------------------------7-7-7-9-12------|
D|--------------------------------------------------------7-7-7-9-12------|


VERSE 2:
Guitar 2: same as before

Guitar 1: basically same as before, slight difference in beginning so I tabbed
	  it out again.
E|------------------------------------------------------------------------|
B|------------------------------------------------------------------------|
G|--------11~------9~-----------------------------------------------------|
D|-----11-------11--------------------------------------------------------|
A|---9--------9-------9-9-9-9-9-9-9-9-11-11-11-11-11-11-11-11-12-12-12-12-|
D|------------------------------------------------------------------------|

E|------------------------------------------------------------------------|
B|-------------------------------------------------------9----------------|
G|---------------------------------------------11~------9-9---------------|
D|------------------------------------------11-------11-------------------|
A|-12-12-12-12-16-16-16-16-16-16-16-16----9--------9-------9-9-9-9-9-9-9-9|
D|------------------------------------------------------------------------|

E|------------------------------------------------------------------------|
B|------------------------------------------------------------------------|
G|------------------------------------------------------------------------|
D|------------------------------------------------------------------------|
A|-11-11-11-11-11-11-11-11-12-12-12-12-12-12-12-12-16-16-16-16-16-16-16-16|
D|------------------------------------------------------------------------|

E|------------------------------------------------------------------------|
B|----------------9-------9----------12-9------9-9-9-9---9----------12-9--|
G|------11~------9--9--9----9--9--9-9----9---9-------------9--9--9-9----9-|
D|---11-------11-----11------11-11--------11----------------11-11---------|
A|-9--------9-------------------------------------------------------------|
D|------------------------------------------------------------------------|

E|------------------------------------------------------------------------|
B|----9-9-9-9~-----------------9------------------------------------------|
G|--9----------------11~------9--(9)--------------------------------------|
D|11--------------11-------11---------------------------------------------|
A|--------------9--------9-----------9-9-9-9-9-9-9-9-11-11-11-11-11-11-11-|
D|------------------------------------------------------------------------|

E|------------------------------------------------------------------------|
B|----------------------------------------------------9-------------------|
G|------------------------------------------------------9---9--9-9~-------|
D|--------------------------------------------------------11-11-----------|
A|-11-12-12-12-12-12-12-12-12-16-16-16-16-16-16-16-16---------------------|
D|------------------------------------------------------------------------|

REPEAT CHORUS

BRIDGE: (violins but tabbed out for guitar)
Guitar 2:
E|------------------------------------------------------------------------|
B|------------------------------------------------------------------------|
G|------------------------------------------------------------------------|
D|--4~--------------------------------------------------------------------|
A|--4~--------------------------------------------------------------------|
D|--4~--------------------------------------------------------------------|


Guitar 1:
E|-12----12----12----12----12----12----12----12-------19----19----19----19|
B|----12----12----12----12----14----14----14----14-14----14----14----14---|
G|------------------------------------------------------------------------|
D|------------------------------------------------------------------------|
A|------------------------------------------------------------------------|
D|------------------------------------------------------------------------|


E|----17----17----17----17-12----12----12----12----12----12----12----12---|
B|-14----14----14----14-------12----12----12----12----14----14----14----14|
G|------------------------------------------------------------------------|
D|------------------------------------------------------------------------|
A|------------------------------------------------------------------------|
D|------------------------------------------------------------------------|

E|----19----19----19----19----17----17------------------------------------|
B|-14----14----14----14----14----14------9-------------9------------------|
G|----------------------------------------9--9-9--9~----9--9-9-9-9~-------|
D|-----------------------------------------11---11-------11---------------|
A|------------------------------------------------------------------------|
D|------------------------------------------------------------------------|

REPEAT CHORUS


BREAK:
Both Guitars: (listen for timing)
E|------------------------------------------------------------------------|
B|------------------------------------------------------------------------|
G|------------------------------------------------------------------------|
D|--0-0-0---0-0---4~-4-x-4-4---2-2-2---2-2---\7-9~--0-0-0---0-0---4~-4-x-4|
A|--0-0-0---0-0---4~-4-x-4-4---2-2-2---2-2---\7-9~--0-0-0---0-0---4~-4-x-4|
D|--0-0-0---0-0---4~-4-x-4-4---2-2-2---2-2---\7-9~--0-0-0---0-0---4~-4-x-4|

E|------------------------------------------------------------------------|
B|------------------------------------------------------------------------|
G|------------------------------------------------------------------------|
D|-4---2-2-2---2-2---7-9-12-----------------------------------------------|
A|-4---2-2-2---2-2---7-9-12-----------------------------------------------|
D|-4---2-2-2---2-2---7-9-12-----------------------------------------------|


Guitar 2:
E|------------------------------------------------------------------------|
B|------------------------------------------------------------------------|
G|------------------------------------------------------------------------|
D|-4~------7~------2~------7~--9~------4~------7~------2~------7-7-7-9-12-|
A|-4~------7~------2~------7~--9~------4~------7~------2~------7-7-7-9-12-|
D|-4~------7~------2~------7~--9~------4~------7~------2~------7-7-7-9-12-|

Guitar 1:
E|------------------------------------------------------------------------|
B|-9-------12-9-9--9-9---9-9--------12-9----12h14-12h14--9-------12-9-9--9|
G|--9--9--9-----------------9--9--9-----9-9---------------9--9--9---------|
D|---11-11-------11----------11-11-------------------------11-11-------11-|
A|------------------------------------------------------------------------|
D|------------------------------------------------------------------------|

									x12 
E|----------------------------|-------------------------------------------|
B|-9---9-9--------12-9--------|--9-------------9--------------------------|
G|--------9--9--9-----9--9----|---9--9-9--9~----9--9-9-9-9~---------------|
D|---------11-11-------11-11--|----11---11-------11-----------------------|
A|----------------------------|-------------------------------------------|
D|----------------------------|-------------------------------------------|

An amazingly enough thats it!  Lead are pretty accurate an require practise,
not even I have got them all down to an art yet.


Comments, questions etc. = Email me.  
Let me know what you think but rating it (Lostprophetguy & Co. get a life, don't
					  ruin the system)
Comments