Lostprophets - A Million Miles Chords & Tabs

 

A Million Miles Chords & Tabs

Lostprophets Chords & Tabs

Version: 1 Type: Bass Tab 0 ratings
1 star 2 stars 3 stars 4 stars 5 stars
comments

A Million Miles Bass Tab

   
Band- Lostprophets
Song- A Million Miles

Intro (plat twice - play last f# only on second time)
G -------------------------------------------------------|
D -------------------------------------------------------|
A ---------------------5--5-5-5--5-5--5-5----------------|
E -2--2-2-2--2-2--2-2------------------------------------|

G ------------------------------------------------------------|--------------------------|
D ------------------------------------------------------------|--------------------------|
A ---------------------5--5-5-5--5-5--5-5---------------------|--------------------------|
E  7--7-7-7--7-7--7-7-----------------------------------------|--2~----------------------|

Verse

(theses are 12's )
G --------------------------------------------------|--------------------|
D ------------------1212121212121212-11-11-11-12----|-4------------------|
A -5555555555555555---------------------------------|--------------------|
E --------------------------------------------------|---2-2-2-2-2-(x4)---|

G --------------------------------------------------|--------------------|
D --------------------------------------------------|-4------------------|
A -55555555-77777777-99999999-77777777--------------|--------------------|
E --------------------------------------------------|---2-2-2-2-2-(x4)---|
[ Tab from: http://www.guitartabs.cc/tabs/l/lostprophets/a_million_miles_btab.html ]
G --------------------------------------------------|--------------------|
D --------------------------------------------------|-4------------------|
A -99999999-1111111111111111-121212121212-77777777--|--------------------|
E --------------------------------------------------|---2-2-2-2-2-(x4)---|
these are 11's & 12's, not 1's & 2's

G --------------------------------------------------|
D --------------------------------------------------|
A -99999999-1111111111111111-121212121212-77777777--| again these are 11's & 12's, not 
& 2's
E --------------------------------------------------|

Chorus
G -------------------------------------------------------------------|
D -------------------------------------------------------------------|
A -5--5-5--5-5-5-----------------------------------------------------|
E ----------------2--2-2--2-2-2--0--0-0--0-0-0--5--5-5--7--7-7-------|

G -------------------------------------------------------------------|
D -------------------------------------------------------------------|
A -5--5-5--5-5-5-----------------------------------------------------|
E ----------------2--2-2--2-2-2--0--0-0--0-0-0--5-5--7--10-----------|

G --------------------------------------------------------------|
D --------------------------------------------------------------|
A -5--5-5--5----------------------------------------------------|
E -----------2--2-2--2-2-2--0--0-0--0-0-0--5--5-5--7--7-7-------|

G --------------------------------------------------------------|
D --------------------------------------------------------------|
A -5--5-5--5----------------------------------------------------|
E -----------2--2-2--2-2-2--0--0-0--0-0-0--5-5--7--10-----------|

[Verse]

[Chorus]

orchestra part (just play this note in the beginning!)
G ---------------------------|
D ---------------------------|
A ---------------------------|
E -2~------------------------|

[Chorus]

End on:
 A -5-
Comments