Lost Prophets - We Still Kill The Old Way Chords & Tabs

 

We Still Kill The Old Way Chords & Tabs

Lost Prophets Chords & Tabs

Version: 1 Type: Tab 0 ratings
1 star 2 stars 3 stars 4 stars 5 stars
comments

We Still Kill The Old Way Tab

   
Lost Prophets - We Still Kill The Old Way
Album: Start Somthing
Tabbed by Dan "I Am AI" Stevens (IAmAI)

Tuning: Drop D - DADGBe


Key
---

PM. - Palm Mute
H.  - Natural harmonic
   - Slide down (from bridge to head)
:|  - Repeat (once, unless otherwise stated underneath)
|:  - Repeat from (here when repeating, otherwise the start of the section)
*   - Note (described underneath)


1. Intro part 1

Parts: G1  (Overdrive/distortion + low bandwith)
       G2  (Overdrive/distortion + low bandwith or keyboard/synthised)

G1: e|---------------------------------------|--------------------------------------|
    B|--------------------------------------:|--------------------------------------|
    G|---------------------------------------|--------------------------------------|
    D|---------------------------------------|--------------------------------------|
    A|---0--0--0---0---0--0---0--0--0--0--0-:|--0--0--0---0---0--0---0--0--0--0--0--|
    D|---0--0--0---0---0--0---0--0--0--0--0--|--0--0--0---0---0--0---0--0--0--0--0--|
     | PM.  .          .         .  .  .     |PM.  .          .         .  .  .     |
     |                                       |                                      |
G2: e|---------------------------------------|-17-17-17--17--17-17--17-17-17-17-17--|
    B|--------------------------------------:|--------------------------------------|
    G|---------------------------------------|--------------------------------------|
    D|---------------------------------------|--------------------------------------|
    A|--------------------------------------:|--------------------------------------|
    D|---------------------------------------|--------------------------------------|

    
G1: e|--------------------------------------|
    B|--------------------------------------|
    G|--------------------------------------|
    D|--------------------------------------|
    A|--0--0--0---0---0--0---0--------------|
    D|--0--0--0---0---0--0---0--------------|
     |PM.  .          .                     |
     |                                      |
G2: e|-17-17-17--17--17-17--17-17-17-17-17--|
    B|--------------------------------------|
    G|--------------------------------------|
    D|--------------------------------------|
    A|--------------------------------------|
    D|--------------------------------------|


    
2. Intro part 2
 
Parts: G1 (Overdrive/distortion)
       G2 (Overdrive/distortion + low bandwidth)

Both parts play the same, except G2 in the second bar, where it plays the same notes, but the 
rhythme of bar 1. You'll get what I mean if you listen carefully on the song.

e|---------------------------------------|--0------0------0------0--------|
B|--------------------------------------:|--0------0------0------0--------|
G|---------------------------------------|--0------0------0------0--------|
D|---------------------------------------|--0------0------0------0--------|
A|---0--0--0---0---0--0---0--0--0--0--0-:|--0------0------0------0--------|
D|---0--0--0---0---0--0---0--0--0--0--0--|--0------0------0------0--------|
   PM.  .          .         .  .  .    x3



3. Pre-verse

Parts: G1 & G2 (Overdrive/distortion)

G1: e|------------------------------|---------------------------|---------------------------|
    B|------------------------------|---------------------------|---------------------------|
    G|------------------------------|---------------------------|---------------------------|
    D|------------------------------|---------------------------|---------------------------|
    A|----5h7-7-5-7-5-7-5-7-5-7-7-5-|-3-7-7-3-7-3-7-3-7-3-7-7-3-|-0h5-5-0-5-0-5-0-5-0-5-5-0-|
    D|-\5h7-7-5-7-5-7-5-7-5-7-7-5-|-3-7-7-3-7-3-7-3-7-3-7-7-3-|-0h5-5-0-5-0-5-0-5-0-5-5-0-|
     |                              |                           |                           |
     |                              |                           |                           |
G2: e|------------------------------|---------------------------|---------------------------|
    B|------------------------------|---------------------------|---------------------------|
    G|------------------------------|---------------------------|---------------------------|
    D|------------------------------|---------------------------|---------------------------|
    A|------------------------------|---------------------------|---------------------------|
    D|------------------------------|---------------------------|---------------------------|
    

G1: e|---------------------------|---------------------------|---------------------------|
    B|---------------------------|---------------------------|---------------------------|
    G|---------------------------|---------------------------|---------------------------|
    D|---------------------------|---------------------------|---------------------------|
    A|-3-7-7-3-7-3-7-3-7-3-7-7-7-|-5h7-7-5-7-5-7-5-7-5-7-7-5-|-3-7-7-3-7-3-7-3-7-3-7-7-3-|
    D|-3-7-7-3-7-3-7-3-7-3-7-7-7-|-5h7-7-5-7-5-7-5-7-5-7-7-5-|-3-7-7-3-7-3-7-3-7-3-7-7-3-|
     |                           |                           |                           |
     |                           |                           |                           |
G2: e|---------------------------|---------------------------|---------------------------|
    B|---------------------------|---------------------------|---------------------------|
    G|---------------------------|---------------------------|---------------------------|
    D|---------------------------|------------0------2-------|---------------------------|
    A|-------------12\\\\\-|-3-------------------------|-0----------2------3-------|
    D|---------------------------|---------------------------|---------------------------|


G1: e|---------------------------|---------------------------|------------5--------------|
    B|---------------------------|---------------------------|------------5--------------|
    G|---------------------------|---------------------------|---------------------------|
    D|---------------------------|---------------------------|-0-------------------------|
    A|-0h5-5-0-5-0-5-0-5-0-5-5-0-|-3-7-7-3-7-3-7-3-7-3-7-7-7-|-0-------------------------|
    D|-0h5-5-0-5-0-5-0-5-0-5-5-0-|-3-7-7-3-7-3-7-3-7-3-7-7-7-|-0-------------------------|
     |                           |                           |                           |
     |                           |                           |                           |
G2: e|---------------------------|---------------------------|---------------------------|
    B|---------------------------|---------------------------|---------------------------|
    G|---------------------------|---------------------------|---------------------------|
    D|---------------------------|---------------------------|---------------------------|
    A|------------0------2-------|-------------------0-------|---------------------------|
    D|-5-------------------------|-3----------5--------------|-0-------------------------|



4. Verse part 1

Parts: G1 (Overdrive/distortion)
       G2 (Clean)

G1: e|----------------------|----------------------|----------------------|
    B|----------------------|----------------------|----------------------|
    G|----------------------|----------------------|----------------------|
    D|----------------------|----------------------|----------------------|
    A|----------------------|----------------------|----------------------|
    D|----------------------|----------------------|----------------------|
     |                      |                      |                      |
     |                      |                      |                      |
G2: e|----------------------|----------------------|----------------------|
    B|----------------------|----------------------|----------------------|
    G|----------------------|----------------------|----------------------|
    D|----------------------|----------------------|----------------------|
    A|----------------------|----------------------|----------------------|
    D|-5h7-7-5-7-7-5-7\\--|-3h7-7-3-7-7-3-7\\--|-0h5-5-0-5-5-0-5\\--|


G1: e|----------------------------------|----------------------|----------------------|
    B|----------------------------------|----------------------|----------------------|
    G|----------------------------------|----------------------|----------------------|
    D|----------------------------------|----------------------|----------------------|
    A|----------------------------------|----------------------|----------------------|
    D|---------------------5-5-5--5-5-5-|-5h7-7-5-7-7-5-7\\--|-3h7-7-3-7-7-3-7\\--|
     |                    H. . .  . . . |                      |                      |
     |                                  |                      |                      |
G2: e|----------------------------------|----------------------|----------------------|
    B|----------------------------------|----------------------|----------------------|
    G|----------------------------------|----------------------|----------------------|
    D|----------------------------------|----------------------|----------------------|
    A|----------------------------------|----------------------|----------------------|
    D|-3h7-7-3-7-7-3-7\\--------------|-5h7-7-5-7-7-5-7\\--|-3h7-7-3-7-7-3-7\\--|

[ Tab from: http://www.guitartabs.cc/tabs/l/lost_prophets/we_still_kill_the_old_way_tab.html ]
G1: e|----------------------|----------------------|
    B|----------------------|----------------------|
    G|----------------------|----------------------|
    D|----------------------|----------------------|
    A|----------------------|----------------------|
    D|-0h5-5-0-5-5-0-5\\--|-3h7-7-3-7-7-3-7\\--|
     |                      |                      |
     |                      |                      |
G2: e|----------------------|----------------------|
    B|----------------------|----------------------|
    G|----------------------|----------------------|
    D|----------------------|----------------------|
    A|----------------------|----------------------|
    D|-0h5-5-0-5-5-0-5\\--|-3h7-7-3-7-7-3-7\\--|



5. Verse part 2

Parts: G1 (Overdriven/distorted)
       G2 (Overdriven/distorted)

G1: e|----------------------------------|-----------------------------------|
    B|----------------------------------|----------------------------------:|
    G|------9-------9-------9-------9---|-----9-------9-------9------9-9----|
    D|--7-7-----7-7-----7-7-----7-7-----|-7-7-----7-7-----7-7-----7---------|
    A|----------------------------------|----------------------------------:|
    D|----------------------------------|-----------------------------------|
     |PM. .     . .     . .     . .     | . .     . .     . .     .         |
     |                                  |                                   |
G2: e|----------------------------------|-----------------------------------|
    B|----------------------------------|----------------------------------:|
    G|--2-------------------------------|-----------------------------------|
    D|----------------------------------|-----------------------------------|
    A|----------------------------------|----------------------------(0-0)-:|
    D|----------------------------------|-----------------------------------|
        *                                                               * *
* + phaser                                              *Second play-through only.


G1: e|----------------------------------|-----------------------------------|
    B|----------------------------------|-----------------------------------|
    G|------9-------9-------9-------9---|-----9-------9-------9------9-9----|
    D|--7-7-----7-7-----7-7-----7-7-----|-7-7-----7-7-----7-7-----7---------|
    A|----------------------------------|-----------------------------------|
    D|----------------------------------|-----------------------------------|
     |PM. . .   . . .   . . .   . . .   | . . .   . . .   . . .   .         |
     |                                  |                                   |
G2: e|----------------------------------|-----------------------------------|
    B|----------------------------------|-----------------------------------|
    G|----------------------------------|-----------------------------------|
    D|----------------------------------|-----------------------------------|
    A|--0-0-0-0-0-0-0-0-0-0-0-0-0-0-0-0-|-5-5-5-5-5-5-5-5-5-5-5-5-5--5-5----|
    D|----------------------------------|-----------------------------------|
      PM. . . . . . . . . . . . . . . .   . . . . . . . . . . . . .


G1: e|----------------------------------|----------------------------------|
    B|----------------------------------|----------------------------------|
    G|------9-------9-------9-------9---|-----9-------9-------9-------9----|
    D|--7-7-----7-7-----7-7-----7-7-----|-7-------7-------7-------7--------|
    A|----------------------------------|----------------------------------|
    D|----------------------------------|----------------------------------|
     |PM. . .   . . .   . . .   . . .   |                                  |
     |                                  |                                  |
G2: e|----------------------------------|----------------------------------|
    B|----------------------------------|----------------------------------|
    G|----------------------------------|----------------------------------|
    D|----------------------------------|----------------------------------|
    A|--3-3-3-3-3-3-3-3-3-3-3-3-3-3-3-3-|----------------------------------|
    D|----------------------------------|-5-5-5-5-5-5-5-5-5-5-5-5-5-5-5-5--|
      PM. . . . . . . . . . . . . . . .   . . . . . . . .



6. Verse end (Overdriven/distorted)

e|-----------------------------|
B|:---------------------------:|
G|-----------------------------|
D|-----------------------------|
A|:-5h7-7-5-7-5-7-5-7-5-7-7-5-:|
D|--5h7-7-5-7-5-7-5-7-5-7-7-5--|



7. Verse end varation (Overdriven/distorted)

e|---------------------------|------------------------|
B|---------------------------|------------------------|
G|---------------------------|------------------------|
D|---------------------------|------------------------|
A|-5h7-7-5-7-5-7-5-7-5-7-7-5-|-5h7-7-5-7---7---7---7--|
D|-5h7-7-5-7-5-7-5-7-5-7-7-5-|-5h7-7-5-7---7---7---7--|



8. Chorus (Overdriven/distorted)

e|----------------------------|--------------------|------------------------------------------|
B|----------------------------|--------------------|:---10-10--10-10--10-10--10-10--10-10-10-:|
G|----------------------------|--------------------|----9--9---9--9---9--9---9--9---9--9--9---|
D|--7------9------10------0---|--7------9------3---|----7--7---7--7---7--7---7--7---7--7--7---|
A|--7------9------10------0---|--7------9------3---|:---0--0---0--0---0--0---0--0---0--0--0--:|
D|--7------9------10------0---|--7------9------3---|----0--0---0--0---0--0---0--0---0--0--0---|



9. Bridge

Parts: G1 (Overdrive/distortion + low bandwith)
       G2 (Overdrive/distortion + low bandwith or keyboard/synthised)

G1: e|---------------------------------------|----------------------------------------|
    B|--------------------------------------:|:--------------------------------------:|
    G|---------------------------------------|----------------------------------------|
    D|---------------------------------------|----------------------------------------|
    A|---0--0--0---0---0--0---0--0--0--0--0-:|:--0--0--0---0---0--0---0--0--0--0--0--:|
    D|---0--0--0---0---0--0---0--0--0--0--0--|---0--0--0---0---0--0---0--0--0--0--0---|
     | PM.  .          .         .  .  .     | PM.  .          .         .  .  .      |
     |                                       |                                        |
G2: e|---------------------------------------|--17-17-17--17--17-17--17-17-17-17-17---|
    B|--------------------------------------:|:--------------------------------------:|
    G|---------------------------------------|----------------------------------------|
    D|---------------------------------------|----------------------------------------|
    A|--------------------------------------:|:--------------------------------------:|
    D|---------------------------------------|----------------------------------------|



10. Interlude (Clean + delay)

e|-------------------------------------------|--------------------------------------------------|
B|----17------17-17--------17-------17----17-|-------17-------17----17-------------------------:|
G|-------16-------------14-------14----------|----16-------16-----------------------------------|
D|-14----------------16-------16-------16----|-17-------17-------17----17-17-17-16-16-16-15-15--|
A|-------------------------------------------|-------------------------------------------------:|
D|-------------------------------------------|--------------------------------------------------|


e|---------------------------|-------------------------|-------------------------|
B|:-17-------17-------17----:|-15-------15-------15----|-15-------15-------15----|
G|-----14-------14-----------|----16-------16----------|----14-------14----------|
D|--------14-------14----14--|-------17-------17----17-|-------16-------16----16-|
A|:-------------------------:|-------------------------|-------------------------|
D|---------------------------|-------------------------|-------------------------|
    *                       x3
*Note: Change to Overdrive/distortion from here.


e|---------------------------|-------------------------|---------------------------------|
B|:-17-------17-------17----:|-15-------15-------15----|---------------------------------|
G|-----14-------14-----------|----16-------16----------|---------------------------------|
D|--------14-------14----14--|-------17-------17----17-|---------------------------------|
A|:-------------------------:|-------------------------|---------------------------------|
D|---------------------------|-------------------------|-5-5-5-5-5-5-5-5-4-4-4-4-4-4-4-4-|


e|---------------------------------|
B|---------------------------------|
G|---------------------------------|
D|---------------------------------|
A|---------------------------------|
D|-2-2-2-2-2-2-2-2-4-4-4-4-4-4-4-4-|



11. Outro (Overdrive/distortion)

e|-10-10--10-10--10-10--10-10--10-10-10-||
B|-10-10--10-10--10-10--10-10--10-10-10-||
G|-9--9---9--9---9--9---9--9---9--9--9--||
D|-7--7---7--7---7--7---7--7---7--7--7--||
A|-0--0---0--0---0--0---0--0---0--0--0--||
D|-0--0---0--0---0--0---0--0---0--0--0--||



Sequence
========

1. Intro part 1
2. Intro part 2
3. Pre-verse
4. Verse part 1
5. Verse part 2
6. Verse end
8. Chorus
4. Verse part 1 (This time G1 comes in straight away playing the same as G2 until bar 4)
5. Verse part 2
7. Verse end varation
8. Chorus
9. Bridge
10. Interlude
8. Chorus
11. Outro
End
Comments