Lost Prophets - Still Laughing Chords & Tabs

 

Still Laughing Chords & Tabs

Lost Prophets Chords & Tabs

Version: 1 Type: Tab 0 ratings
1 star 2 stars 3 stars 4 stars 5 stars
comments

Still Laughing Tab

Song: Still Laughing
Artist: Lost Prophets
Album: The Fake Sound of Progress
Tabbed by: Tommi S.
Tuning: One step down and drop to c

I got to say that this was a nightmare to tab. There were so much different effects used on the guitar and the bass got me all mixed up.. But I hope that you can enjoy this tab, it’s not perfect but at least I did try...
Hope you like it. Thanks.

Intro:

1:---------------------3--------------------------------------------|
2:--3------3-----6-----------6\-------------------------------------|
3:-------------------------------------3-----3-------5-----0-----0--|
4:------------------------------------------------------------------|  Guitar 1
5:--5---5-----5-----5-----5---------5-----5-------5-----5-----5-----|   (0:00)
6:------------------------------------------------------------------|

1:-------------------------------------|
2:---------10--------------------------|
3:--7----------10---------------9------|  Guitar 2
4:----------------------7----------10--|   (0:10)
5:-------------------------------------|
6:-------------------------------------|

Verse:

1:-----------------------------------------------|
2:--3------3-----5-----6--5--3-------------------|
3:--------------------------------3-----5-----0--|
4:-----------------------------------------------|  Guitar 1
5:--5---5-----5-----5-----5--5----5-----5-----5--|   (0:20) 
6:-----------------------------------------------|

1:-------------------------------|
2:---------10--------------------|
3:--7-------------------------9--|
4:--------------------7----------|  Guitar 2
5:-------------------------------|   (0:20)
6:-------------------------------|

Chorus

1:-----5--------3--3------------5--------3------------5--------3---3-----3--
2:-----5--------5-----5---------5--------5-----5------5--------5------5-----
3:--7--7--------5--------5---7--7--------5--5------7--7--------5---5--------
4:--7--7-----5--5------------7--7-----5--5---------7--7-----5--5------------
5:--5--5-----5--3------------5--5-----5--3---------5--5-----5--3------------
6:-----------5------------------------5---------------------5---------------

------5--------3--|
------5--------5--|
---7--7--------5--| Guitar 1&2
---7--7-----5--5--|  (0:59)
---5--5-----5--3--|
------------5-----|

Then Intro, Verse and Chours

Bridge:
[ Tab from: http://www.guitartabs.cc/tabs/l/lost_prophets/still_laughing_tab.html ]
1:------------------------------------------|
2:------------------------------------------|
3:--5-------------5-------------5-----4-----|
4:-----3---3--3------3---3—-3------3-----3--| Guitar 1
5:------------------------------------------|  (2:26)
6:------------------------------------------|

1:------------------------------------------|
2:------------------------------------------|
3:--5-------------5-------------5-----4-----|
4:-----2---2--2------2---2—-2------2-----2--| Guitar 1
5:------------------------------------------|  (2:29)
6:------------------------------------------|

1:------------------------------------------|
2:------------------------------------------|
3:--5--2---2--2---5--2---2--2---5--2--4--2--|
4:------------------------—-----------------| Guitar 1
5:------------------------------------------|  (2:31)
6:------------------------------------------|

1:------------------------------------------|
2:------------------------------------------|
3:--5--2---2--2---5--2---2--2---5--2--4--2--|
4:------------------------—-----------------| Guitar 1
5:------------------------------------------|  (2:34)
6:------------------------------------------|

Then the second guitar comes in with chords:

1:----------------------------------|
2:----------------------------------|
3:--5----5--7----7--9----9--9----9--| 
4:--3----3--5----5--7----7--7----7--| Guitar 2
5:--3----3--5----5--7----7--7----7--|  (2:46)
6:--3----3--5----5--7----7--7----7--|

Then this:

                                     Ending 1
1:--------------------------------|-------------|
2:--------------------------------|-------------|
3:--5---5--5--4---4--4--5---5--5—-|--2---4---5--| 
4:--------------------------------|-------------| Guitar 1
5:--------------------------------|-------------|  (3:06)
6:--------------------------------|-------------|

         Ending 2
1:--------------------------|
2:--------------------------|
3:--5--2--4--0--2--4--5--7--|  (3:23)
4:--------------------------|
5:--------------------------|
6:--------------------------|

Then again the first part of the bridge with chords

Then outro w/same chords than in the bridge:

1:--------------------------|
2:--------------------------|
3:--5--4--7--4--5--4--7--4--|  (3:45)
4:--------------------------|
5:--------------------------|
6:--------------------------|

Sometimes you play it like this:

1:--------7-----------7-----|
2:--------------------------|
3:--5--4-----4--5--4-----4--|
4:--------------------------|
5:--------------------------|
6:--------------------------|

End:

1:-----|
2:-----|
3:--7--|
4:--5--|
5:--5--|
6:--5--|



Comments