Lost Prophets - Shinobivsdragonninja Chords & Tabs

 

Shinobivsdragonninja Chords & Tabs

Lost Prophets Chords & Tabs

Version: 1 Type: Tab 0 ratings
1 star 2 stars 3 stars 4 stars 5 stars
comments

Shinobivsdragonninja Tab

   
***********************************
/\/\/\/\/\/\/\/\/\/\/\/\/\/\/\/\/\/
###################################
Lostprophets - shinobiVSdragonninja
###################################
\/\/\/\/\/\/\/\/\/\/\/\/\/\/\/\/\/\
***********************************
tabbed by Jack=)

this song is in dropped D, (DADGBe)
if u dont kno how 2 tune to dropped D u make the top(E) string
sound in tune to the D string

Intro
e|----------------------------------------------------------
B|----------------------------------------------------------
G|----------------------------------------------------------
D|----------------------------------------------------------
A|----------------------------------------------------------
D|--0-0-3-2-0-0-3-2-0-0-3-2-0-0-3-2-3-3-5-3-3-5-5-5-7-5-5-7-

Heavy bit after intro/Chorus

e|----------------------------------------------------------
B|----------------------------------------------------------
G|----------------------------------------------------------
D|--0-0-----0-0-----0-0-----0-0-----3-3---3-3---5-5---5-5---   \ /   __
A|--0-0-----0-0-----0-0-----0-0-----3-3---3-3---5-5---5-5---    X    __|
D|--0-0-3-2-0-0-3-2-0-0-3-2-0-0-3-2-3-3-5-3-3-5-5-5-7-5-5-7-   / \   |__

Verse(palm muted)

e|----------------------------------------------------------------
B|----------------------------------------------------------------
G|----------------------------------------------------------------
D|-0-0-0-0-0-0-0-0-0-0-0-0-0-0-0-0-3-3-3-3-3-3-3-3-2-2-2-2-2-2-2-2
A|-0-0-0-0-0-0-0-0-0-0-0-0-0-0-0-0-3-3-3-3-3-3-3-3-2-2-2-2-2-2-2-2
D|-0-0-0-0-0-0-0-0-0-0-0-0-0-0-0-0-3-3-3-3-3-3-3-3-2-2-2-2-2-2-2-2

that goes on for a bit until this bit...(not sure about the last bit)
[ Tab from: http://www.guitartabs.cc/tabs/l/lost_prophets/shinobivsdragonninja_tab.html ]
Pre Chorus
e|---------------------------------------------8---8---8----
B|---6---6---6---6----6----6---8----8----8------------------
G|-----5---5---5---7----7----7----7----7----7----7---7---7--
D|----------------------------------------------------------
A|----------------------------------------------------------
D|----------------------------------------------------------

this is what i call the "let it ring"bit where you let the following 
chords ring

e|----------------------------------------------------------
B|----------------------------------------------------------
G|----------------------------------------------------------
D|--8----0----8----0----8-----------------------------------
A|--8----0----8----0----8-----------------------------------
D|--8----0----8----0----8-----------------------------------

and then the top string fiddle bit! (listen to cd for rythmn)

e|----------------------------------------------------------
B|----------------------------------------------------------
G|----------------------------------------------------------
D|----------------------------------------------------------
A|----------------------------------------------------------
D|000000000000000000000000----------------------------------
(not sure about how many 0's to put in here but if u listen to the song u'll get it)

e|----------------------------------------------------------
B|----------------------------------------------------------
G|----------------------------------------------------------
D|--0-0-3-2-0-0-3-2-0-0-3-2-0-0-3-2-0-0-3-2-0-0-3-2-0-0-3-2-
A|--0-0-3-2-0-0-3-2-0-0-3-2-0-0-3-2-0-0-3-2-0-0-3-2-0-0-3-2-
D|--0-0-3-2-0-0-3-2-0-0-3-2-0-0-3-2-0-0-3-2-0-0-3-2-0-0-3-2-
and that bit goes on till the end

but theres the final palm muted bit of..
e|----------------------------------------------------------
B|----------------------------------------------------------
G|----------------------------------------------------------
D|-0-0-0-0-0-0-0-0-0-0--------------------------------------
A|-0-0-0-0-0-0-0-0-0-0--------------------------------------
D|-0-0-0-0-0-0-0-0-0-0--------------------------------------

song order

intro
chorus
verse
prechorus
chorus
verse
prechorus
chorus
let it ring bit
final section
END!
 and thats it!, yay, that took me ages, comments to deakin_316@hotmail.com
Comments