Lost Prophets - Shinobi Vs Dragon Ninja Chords & Tabs

 

Shinobi Vs Dragon Ninja Chords & Tabs

Lost Prophets Chords & Tabs

Version: 3 Type: Tab 0 ratings
1 star 2 stars 3 stars 4 stars 5 stars
comments

Shinobi Vs Dragon Ninja Tab

#----------------------------------PLEASE NOTE--------------------------------#
#This file is the author's own work and represents their interpretation of the#
#song. You may only use this file for private study, scholarship, or research.#
#-----------------------------------------------------------------------------#
#-- File created with Instab - http://www.pconline.com/~smcarey/instab.html --#
#-----------------------------------------------------------------------------#

Author/Artist: Lost Prophets
Title: Shinobi Vs Dragon Ninja
Album: The Fake Sound Of Progress - Track 2
Transcribed by: Keith Fusco
Email: keith_fusco_the_offspring_fan@yahoo.com

Play The Intro Once Without Distortion Then Twicw With
Play The Verse Twice Then The Second Half Of The Verse Twice
Then Go Back To The Intro Twice With Distortion
Then Back To The Verse Again And Do The Same Thing Again
Then Play The Breakdown, Then The Outro

Intro

------------------------------------------------------------------------------
------------------------------------------------------------------------------
------------------------------------------------------------------------------
--------------------------------------------------5-----5-----7-----7---------
------------------------------------------------------------------------------
-0-0-15-14-00-0-15-14-00-00-15-14-00-00-15-14-3-3---3-3---5-5---5-5-----------
 Verse                                                                        
[ Tab from: http://www.guitartabs.cc/tabs/l/lost_prophets/shinobi_vs_dragon_ninja_tab_ver_3.html ]
------------------------------------------------------------------------------
------------------------------------------------------------------------------
------------------------------------------------------------------------------
-55-55-5-55-55-55-55-5-55-88-88-8-88-77-77-7-77-------------------------------
-55-55-5-55-55-55-55-5-55-88-88-8-88-77-77-7-77-------------------------------
-33-33-3-33-33-33-33-3-33-66-66-6-66-55-55-5-55-------------------------------
 Second Half Of Verse                                                         

-----------------------------------------5---------5--------------------------
-6---6---6-------6---6---6-------6---------6---------6------------------------
---5---5---5-------5---5---5-------5---------5---------5----------------------
------------------------------------------------------------------------------
------------------------------------------------------------------------------
------------------------------------------------------------------------------
 Breakdown                                                                    

------------------------------------------------------------------------------
------------------------------------------------------------------------------
------------------------------------------------------------------------------
-7-----0-----3-----2-----3----------------------------------------------------
-7-----0-----3-----2-----3----------------------------------------------------
-7-----0-----3-----2-----3----------------------------------------------------
 Outro                                                                        

------------------------------------------------------------------------------
------------------------------------------------------------------------------
------------------------------------------------------------------------------
-0-0-3-2-0-0-3-2-0-0-3-2-0-0-3-2-0-0-3-2-0-0-3-2-0-0-3-2----------------------
-0-0-3-2-0-0-3-2-0-0-3-2-0-0-3-2-0-0-3-2-0-0-3-2-0-0-3-2----------------------
-0-0-3-2-0-0-3-2-0-0-3-2-0-0-3-2-0-0-3-2-0-0-3-2-0-0-3-2----------------------
                                                                              

Comments