Lost Prophets - Shinobi Vs Dragon Ninja Chords & Tabs

 

Shinobi Vs Dragon Ninja Chords & Tabs

Lost Prophets Chords & Tabs

Version: 1 Type: Bass Tab 0 ratings
1 star 2 stars 3 stars 4 stars 5 stars
comments

Shinobi Vs Dragon Ninja Bass Tab

   
this song i have never seen tabbed properly and its amazin so i sat down and gave it my best shot its
99% accurate any corrections or comments to offspring_rule_2000@hotmail.com


intro

G---------------------------------------------------
D---------------------------------------------------
A---------------------------------------------------
D-0-0-14-15--0-0-0-14-15--0-0-0-14-15--0-0-0-0-14-15

G--------------------------------
D-------5-------5-------7-------7
A--------------------------------
D-3-3-3---3-3-3---5-5-5---5-5-5--

verse
[ Tab from: http://www.guitartabs.cc/tabs/l/lost_prophets/shinobi_vs_dragon_ninja_btab.html ]
G-----------------------------------------------
D-----------------------------------------------
A-----------------------------------------------
D-0-0---0-0---0-0---0-0---3-3---3-3---2-2---2-2-

i couldnt work the bridge/interlude thing out but i did do that funny
noise that it makes

just pick scratch from the 22nd fret to the 5th and back but dont just
scratch sort of bounce the pick of the string

outro

G---------------------------------------
D---------------------------------------
A---------------------------------------
D-0-0-3-2-0-0-0-3-2-0-0-0-3-2-0-0-0-3-2-

G--------------
D--------------
A-33-3-3-3-33-3
D--------------
Comments