Lost Prophets - For Sure Chords & Tabs

 

For Sure Chords & Tabs

Lost Prophets Chords & Tabs

Version: 1 Type: Tab 0 ratings
1 star 2 stars 3 stars 4 stars 5 stars
comments

For Sure Tab

   
Author/Artist: L o s t P r o p h e t s
Title: f o r s u r e
Album: t h e f a k e s o u n d o f p r o g r e s s
Transcribed By: Colin Watts
E-Mail: matrix572@hotmail.com

Tuning: Drop C (CGCFAD)


Intro / Main Riff (Repeat several times)

D --------------------------------------------------------------------------------
A --------10-----------------10----------------10------8------11------------------
F ---10------10---10----10------10---10---10------10-----10------10---------------
C -8----8-------8----------8-------8----0----0-------0------0-------0-------------
G -------------------10-----------------------------------------------------------
C --------------------------------------------------------------------------------

D --------------------------------------------------------------------------------
A --------10-----------------10----------------10------8-------8------------------
F ---10------10---10----10------10---10---10------10-----10------10---------------
C -8----8-------8----------8-------8----0----0-------0------0-------0-------------
G -------------------10-----------------------------------------------------------
C --------------------------------------------------------------------------------


Verse - Distortion - Not exact, but something like this (Repeat a few times)

D --------------------------------------------------------------------------------
A -10-10-10------------10-10-10-10-10---------------------------------------------
F -10-10-10--10-10-10--10-10-10-10-10---------------------------------------------
C --8--8--8--10-10-10---0--0--0--0--0---------------------------------------------
G -----------10-10-10-------------------------------------------------------------
C --------------------------------------------------------------------------------


Pre-Chorus - Echo/Reverb

D --8---5---3---5---8------5------------------------------------------------------
A --6---3---1---3---6------3------------------------------------------------------
F --------------------------------------------------------------------------------
C --------------------------------------------------------------------------------
G --------------------------------------------------------------------------------
C --------------------------------------------------------------------------------


Chorus (Repeat several times)
[ Tab from: http://www.guitartabs.cc/tabs/l/lost_prophets/for_sure_tab.html ]
D --------------------------------------------------------------------------------
A --------------------------------------------------------------------------------
F --------------------------------------------------------------------------------
C -----3-----5-----7--------------------------------------------------------------
G -----3-----5-----7--------------------------------------------------------------
C -----3-----5-----7--------------------------------------------------------------


Lead Part Played Over Chorus Towards End - Something like this - (Repeat a few times)

D --------------------------------------------------------------------------------
A --------------------------------------------------------------------------------
F ----------14----------------14---------14---------------------------------------
C -12----12--------12----12---------12--------------------------------------------
G ----15--------15----15----15---------15-----------------------------------------
C --------------------------------------------------------------------------------

--Intro / Main Riff--

--Verse--

--Pre-Chorus--

--Chorus--

--Lead Part Played Over Chorus Towards End--

Interlude - Echo/Reverb

D --8---5---3---5---8------5---3---5---8------5---3---5---8------5----------------
A --6---3---1---3---6------3---1---3---6------3---1---3---6------3----------------
F --------------------------------------------------------------------------------
C --------------------------------------------------------------------------------
G --------------------------------------------------------------------------------
C --------------------------------------------------------------------------------


Heavy Part - Distortion (Repeat a few times)

D --------------------------------------------------------------------------------
A --------------------------------------------------------------------------------
F --------------------------------------------------------------------------------
C ---7-7--5-7-7-5-7-7-5-7-7-------------------------------------------------------
G ---7-7--5-7-7-5-7-7-5-7-7-etc-etc-----------------------------------------------
C ---7-7--5-7-7-5-7-7-5-7-7-------------------------------------------------------

D --------------------------------------------------------------------------------
A --------------------------------------------------------------------------------
F --------------------------------------------------------------------------------
C ---7--7-7--7--7-7--7--7-7-7--7-7------------------------------------------------
G ---7--7-7--7--7-7--7--7-7-7--7-7-(Palm Muted)-----------------------------------
C ---7--7-7--7--7-7--7--7-7-7--7-7------------------------------------------------


--Chorus--

--Lead Part Played Over Chorus Towards End--

Any comments, corrections (which there will be for everything bar the intro I'm sure) welcome.
Comments