Lost Prophets - Fake Sound Of Progress Chords & Tabs

 

Fake Sound Of Progress Chords & Tabs

Lost Prophets Chords & Tabs

Version: 1 Type: Bass Tab 1 rating
1 star 2 stars 3 stars 4 stars 5 stars
comments

Fake Sound Of Progress Bass Tab

Lost Prophets- Fake Sound Of Progress

Intro#1:

G:-----------------------------
D:-2--4-----------------------
A:--------3--5----------------
E:-----------------------------

Intro#2:

G:------------------------------------------------------------
D:-2-2-4-4----------------2-2-4-4-------------------------
A:-----------3-3-3-5-5-5-----------3-3-3-5-5-5-5-5-5-5-
E:-------------------------------------------------------------

Verse:

G:------------------------------------------------------------
D:------------------------------------------------------------
A:------------3-33-3-----------3-33-3-------------------------
E:-0--0-0-0----------0--0-0-0-------- and so on and so forth--

Chorus:
[ Tab from: http://www.guitartabs.cc/tabs/l/lost_prophets/fake_sound_of_progress_btab.html ]
G:-------------------------------------------
D:-------------------------------------------
A:-----------------3-3-3-5-5-5---------------
E:-0-0-0--2-2-2------------------------------

Brige#1:

G:--------------------------------
D:--2-------4---------------------
A:------------------3----------5--
E:--------------------------------

Brige#2:

G:-------------------------------------------------------------
------
D:-------------------------------------------------------------
------
A:--7777777777777777-555555555555555555-3333333333333333-2-0---
-------
E:-----------------------------------------------------------3-
2-3-2-0

Thats it. i'm not sure it's 100% right but it's about right,
comments/suggestions/corrections: email: WindShrieker@aol.com
thanx
Comments