Lost North Star - Stupid Thoughts Chords & Tabs

 

Stupid Thoughts Chords & Tabs

Lost North Star Chords & Tabs

Version: 1 Type: Tab 0 ratings
1 star 2 stars 3 stars 4 stars 5 stars
comments

Stupid Thoughts Tab

  			*Lost North Star-Stupid Thoughts*

Intro

theres a little distortion

E----------------------------------------------------------------------------
B----------------------------------------------------------------------------
G-6-6--6-6-6-6----2-2--2-2-2-2----3-3-3-x-x----10-10-10----8-8-8-8-8-8-------
D-6-4--6-6-6-4----2-2--2-2-2-2----3-3-3-x-x----10-10-10----8-8-8-8-8-8-------  X2
A-4-4--4-4-4-4----0-0--0-0-0-0----1-1-1-x-x-----8--8--8----6-6-6-6-6-6-------
E----------------------------------------------------------------------------

heavy distortion

E------------------------------------------------------------
B------------------------------------------------------------
G-------------------------------------{-6-6-6---3-3-3---------
D-8-----6-----4----6------------------{-6-6-6---3-3-3---4-----
A-8-----6-----4----6---------Palm Mute{-4-4-4---5-5-5---4-----
E-6-----4-----2----4------------------{-----------------2-----

Lyrics:

How can I say goodbye to you,

Without losing myself too.

If I let you just slip away,

My world would fall apart today.


When therell be nothing worthwhile Tuesday
[ Tab from: http://www.guitartabs.cc/tabs/l/lost_north_star/stupid_thoughts_tab.html ]
With the stupid world today!

Verse:

Times have changed

Everything 

Is still the same to me

Look for me

But close your eyes

But find me in your dreams


Chorus:
Say I love you now!
But seal it with a kiss
How can I say good bye to you
Without losing myself too.
If I let you just slip away,
My world will fall apart today.

Verse:

Why did I 

Think about

Somethin goin wrong

I have been

A losing dude

To my stupid thoughts

That I  dont want to know!

*Chorus*

Then therell be nothing worthwhile Tuesday

With the STUPID WORLD TODAY!


How can I say good bye to you
Without losing myself too.

*Disortion*
If I let you just slip away,
My world will fall apart today.

How can I say good bye to you
Without losing myself too.
If I let you just slip away,
My world will fall apart today.



Then therell be nothing worthwhile Tuesday

With the STUPID WORLD TODAY!



Artist: Lost North Star
Album: Stupid Thoughts
Tabbed by: Neo
Email: 8_Neo_8@onebox.com


      *email me if you think there should be any changes*







 



































Comments