Lost For Words - Paper Street Chords & Tabs

 

Paper Street Chords & Tabs

Lost For Words Chords & Tabs

Version: 1 Type: Tab 0 ratings
1 star 2 stars 3 stars 4 stars 5 stars
comments

Paper Street Tab

-------------------------------------------------------------------------------
			     paper street - Lost For Words
-------------------------------------------------------------------------------

By:izumi26@hotmail.com
standard tuning. by a very new band. this song rocks and is pretty simple. i love -lost 
for words-

e|---------------------------------------------------------------------------|
B|---------------------------------------------------------------------------|
G|----7-----7------7-----7-------7-------7------7-------7--------------------|
D|--0--0---0--0--0--0--0--0----0---0---0---0--0---0---0---0------------------|
A|----------------------------5------5---------------------------------------|X4(pick)
E|-7-----7------5----5-----------------------5-------5-----------------------|
  play through once then sing "if you should fall asleep..."

e|---------------------------------------------------------------------------|
B|---------------------------------------------------------------------------|
G|-7--7--7--7--7--7--7--7--7--7--7--7--7--7--7--7----------------------------|X3(strum)
D|-0--0--0--0--0--0--0--0--0--0--0--0--0--0--0--0----------------------------|
A|-x--x--x--x--x--x--x--x--5--5--5--5--x--x--x--x----------------------------|
E|-7--7--7--7--5--5--5--5--------------5--5--5--5----------------------------|
   "keep me always on your shelf..."

e|---------------------------------------------------------------------------|
B|---------------------------------------------------------------------------|
G|---------------------------------------------------------------------------|
D|---------------------------------------------------------------------------|X2(strum)
A|-7-7--7--7---5-5-5-5--7--7-7--7---9-9-9-9----------------------------------|
E|-5-5--5--5---3-3-3-3--5--5-5--5---7-7-7-7----------------------------------|
   "if you don't, don't say so..."

e|---------------------------------------------------------------------------|
B|---------------------------------------------------------------------------|
G|-7-7-7-7--7-7-7-7--7-7-7-7--7-7-7-7----------------------------------------|
D|-0-0-0-0--0-0-0-0--0-0-0-0--0-0-0-0----------------------------------------|X1(strum)
A|-5-5-5-5--x-x-x-x--x-x-x-x--x-x-x-x----------------------------------------|
E|----------5-5-5-5--7-7-7-7--5-5-5-5----------------------------------------|

e|---------------------------------------------------------------------------|
B|---------------------------------------------------------------------------|
G|----7-----7------7-----7-------7-------7------7-------7--------------------|
D|--0--0---0--0--0--0--0--0----0---0---0---0--0---0---0---0------------------|
A|----------------------------5------5---------------------------------------|X4(pick)
E|-7-----7------5----5-----------------------5-------5-----------------------|
    play through once "this place is getting cold..."

e|---------------------------------------------------------------------------|
B|---------------------------------------------------------------------------|
G|-7--7--7--7--7--7--7--7--7--7--7--7--7--7--7--7----------------------------|X3(strum)
D|-0--0--0--0--0--0--0--0--0--0--0--0--0--0--0--0----------------------------|
A|-x--x--x--x--x--x--x--x--5--5--5--5--x--x--x--x----------------------------|
E|-7--7--7--7--5--5--5--5--------------5--5--5--5----------------------------|
    "and never let me know..."
[ Tab from: http://www.guitartabs.cc/tabs/l/lost_for_words/paper_street_tab.html ]
e|---------------------------------------------------------------------------|
B|---------------------------------------------------------------------------|
G|---------------------------------------------------------------------------|
D|---------------------------------------------------------------------------|X2(strum)
A|-7-7--7--7---5-5-5-5--7--7-7--7---9-9-9-9----------------------------------|
E|-5-5--5--5---3-3-3-3--5--5-5--5---7-7-7-7----------------------------------|
      "if you don't, don't say so..."

e|---------------------------------------------------------------------------|
B|---------------------------------------------------------------------------|
G|-7-7-7-7--7-7-7-7--7-7-7-7--7-7-7-7----------------------------------------|
D|-0-0-0-0--0-0-0-0--0-0-0-0--0-0-0-0----------------------------------------|X1(strum)
A|-5-5-5-5--x-x-x-x--x-x-x-x--x-x-x-x----------------------------------------|
E|----------5-5-5-5--7-7-7-7--5-5-5-5----------------------------------------|


e|---------------------------------------------------------------------------|
B|---------------------------------------------------------------------------|
G|-7-7-7-7-----7-7-7-7-----7-7-7-7-----7-7-7-7-------------------------------|
D|-0-0-0-0-----0-0-0-0-----0-0-0-0-----0-0-0-0-------------------------------|X2(strum then pause between changes)
A|-5-5-5-5-----x-x-x-x-----x-x-x-x-----x-x-x-x-------------------------------|
E|-------------5-5-5-5-----7-7-7-7-----5-5-5-5-------------------------------|
     "if you don't, don't say so......then you'll never..."

e|---------------------------------------------------------------------------|
B|---------------------------------------------------------------------------|
G|---------------------------------------------------------------------------|
D|---------------------------------------------------------------------------|X2(strum)
A|-7-7--7--7---5-5-5-5--7--7-7--7---9-9-9-9----------------------------------|
E|-5-5--5--5---3-3-3-3--5--5-5--5---7-7-7-7----------------------------------|


e|---------------------------------------------------------------------------|
B|---------------------------------------------------------------------------|
G|-7-7-7-7-----7-7-7-7-----7-7-7-7-----7-7-7-7-------------------------------|
D|-0-0-0-0-----0-0-0-0-----0-0-0-0-----0-0-0-0-------------------------------|X2(strum then pause between changes)
A|-5-5-5-5-----x-x-x-x-----x-x-x-x-----x-x-x-x-------------------------------|
E|-------------5-5-5-5-----7-7-7-7-----5-5-5-5-------------------------------|
    "if you don't, don't say so.......then you'll never..."

e|---------------------------------------------------------------------------|
B|---------------------------------------------------------------------------|
G|---------------------------------------------------------------------------|
D|---------------------------------------------------------------------------|X4(strum)
A|-7-7--7--7---5-5-5-5--7--7-7--7---9-9-9-9----------------------------------|
E|-5-5--5--5---3-3-3-3--5--5-5--5---7-7-7-7----------------------------------|

e|---------------------------------------------------------------------------|
B|---------------------------------------------------------------------------|
G|----7-----7------7-----7-------7-------7------7-------7--------------------|
D|--0--0---0--0--0--0--0--0----0---0---0---0--0---0---0---0------------------|
A|----------------------------5------5---------------------------------------|X1(pick)
E|-7-----7------5----5-----------------------5-------5-----------------------|

lyrics
verse 1
if you should fall asleep
tell me this promise that you'd keep
tell me i'm always on your mind 
eventhough i've run out of time

keep me always on your shelf
keep me always to yourself
if i should get my wish
i'd get exactly this

chorus
if you don't
don't say so
then you'll never
you'll never know
cause if you don't
don't say so
then just let me
just let me go

verse2
this place is getting cold
and this feeling is getting old
but i still promise you
what i can't follow through

and never let me know
what it took to let me go
if i should get my wish
i'd get exactly this

chorusx4
Comments